Song name
# A B C D E F G H I J K L M N O P Q R S T U V W X Y Z

Ventures - Wipeout tab

This is how our band plays wipeout.
(lead guitar)
e----------------------------------------------------|
b----------------------------------------------------|
g----------------------------------------------------|PLAY TWICE
d----------------------------------------------------|
a--5-6-7-7-7-5----5-6-7-7-7-5------------------------|
e-7-----------7-7------------7-----------------------|

e----------------------------------------------------|
b----------------------------------------------------|
g----------------------------------------------------|THEN PLAY FIRST PART
d--5-6-7-7-7-5---5-6-7-7-7-5------------ONCE---------|
a-7-----------7-7-----------7------------------------|
e----------------------------------------------------|

E---------------------------------------------------|
B---------------------------------------------------|
G---------------------------------------------------|
D-5-7-9-9-9-7---9----7-7-7-5---7--------------------|
A7-----------9-9------------7-7-----7-7-7-5---5-5---|
E------------------------------------------7-7---7--|

(drum solo)

reapeat the above tabs, then theres another drum solo. then..

(guitar solo)
e-11/12-12----------12-------------------------------|
b-11/12-12----------12---PLAY 4 TIMES----------------|
g-11/12-12-14h12-13-12-------------------------------|
d----------------------------------------------------|
a----------------------------------------------------|
e----------------------------------------------------|

E-4/5-5-------5--------------------------------------|
B-4/5-5-------5---PLAY TWICE-------------------------|
G-4/5-5-7h5-6-5--------------------------------------|
D----------------------------------------------------|
A----------------------------------------------------|
E----------------------------------------------------|

e-11/12-12----------12------------------------------|
b-11/12-12----------12---------PLAY TWICE-----------|
g-11/12-12-14h12-13-12------------------------------|
d---------------------------------------------------|
a---------------------------------------------------|
e---------------------------------------------------|

e-7-7-7-7-7-7-7------5-5-5-5-5-5-5-------------------|
b-7-7-7-7-7-7-7------5-5-5-5-5-5-5-------------------|
g-7-7-7-7-7-7-7------5-5-5-5-5-5-5-------------------|
d----------------------------------------------------|
a-----------------------------------------00-11-2212-|
e------------------------------------00-44-----------|

(final drum solo)

e----------------------------------------------------|
b----------------------------------------------------|
g----------------------------------------------------|PLAY TWICE
d----------------------------------------------------|
a--5-6-7-7-7-5----5-6-7-7-7-5------------------------|
e-7-----------7-7------------7-----------------------|

e-------------------------------------------------------------------------|
b-------------------------------------------------------------------------|
g-------------------------------------------------------------------------|
d--5-6-7-7-7-5---5-6-7-7-7-5----------------------------------------------|
a-7-----------7-7-----------7------5-6-7-7-7-5---5-6-7-7-7-5--------------|
e---------------------------------7-----------7-7-----------7-------------|

E---------------------------------------------------9-10-12---------------|
B------------------------------------99-1010-1111-12----------------------|
G----------------------------------99-----------------------------1-------|
D--5-7-9-9-9-7---9----7-7-7-5---7---------------------------------2-------|
A-7-----------9-9------------7-7----------------------------------2-------|
E-------------------------------------------------------------------------|

and thats it. ill have to add the rythm guitar some other time.
this is an easy song for bands that are just begining, and you dont need a vocalist to 
it. the drum solos are the hardest parts of this song, but other than that, its all easy
Tap to rate this tab
# A B C D E F G H I J K L M N O P Q R S T U V W X Y Z