Ventures - Secret Agent Man tab

Song:Secret Agent Man
Artist:The Ventures
Part:Rythm


LEGEND:
S=slide to fret
h=hit and hold fret until nxt. note

[-----------------------x4
[------5--5--5--5--5--5--]
[----4--5--5--6--5--5--4-](On fourth time through, do not hit fourth fret, 
[------------------------]just go right into verse 1)
[------------------------]
[------------------------]

Verse 1:
[----------------------------------------------]
[-----------------------------------11-10-8-5--]
[---------0-0-h2s3-2-2-0-2-0----0--------------]
[--h2-2-2-------------------2-0---2------------]
[----------------------------------------------]
[----------------------------------------------]

[----------------------------------------------]
[----------------------------------------------]
[---------0-0-2-2s5-5-5-7-5-7-5s8-5-0-5-5-7-5--]
[--h2-2-2--------------------------------------]
[----------------------------------------------]
[----------------------------------------------]

[----------------------------------------------]
[----------------------------------------------]
[-0-5-7-9-9-7-9-2-0-2s4-2-0-2-2-0-2-0---0-2s4--]
[-------------------------------------2--------]
[----------------------------------------------]
[----------------------------------------------]

[----------------------------------------------]
[----------------------------------------------]
[-7-2-0------------0-0-2-2-2s3-2-2-0-2-0-----0-]
[-------2-0-h2-2-2-----------------------2-0--2]
[----------------------------------------------]
[----------------------------------------------]

[----------------------------------------------]
[----------------------------------------------]
[----------------------------------------------]
[----0-2s3-0-2---0-2s3-0-2---------------------]
[-h2-----------h2----------2-0-----------------]
[-----------------------------3-5-5-3-5-2------]

[--------------] Then repeat intro to complete riff.
[--------------]
[--------------]
[----0-2s3-0-3-]
[-h2-----------]
[--------------]
Tap to rate this tab
 
# A B C D E F G H I J K L M N O P Q R S T U V W X Y Z