Song name
# A B C D E F G H I J K L M N O P Q R S T U V W X Y Z

Ventures - The Lonely Bull tab

for guitar best reference would be Live in Japan '65

"THE LONELY BULL" By the Ventures

intro:
|---5--5-5~~~~--|-----------------------5--5-5~~~~-|---------------------------|
|-5-------------|-5-5--2--5-5--2--5-5--------------|-5-5--2--5-5--2--5-2-------|
|---------------|----------------------------------|----------------------2~~~-|
|---------------|----------------------------------|---------------------------|
|---------------|----------------------------------|---------------------------|
|---------------|----------------------------------|---------------------------|


first riff
|-5~~~~-9--5~~~--|-------|-----------|
|----------------|-5-----|-5---------|
|----------------|----6--|---6-------|
|----------------|-------|-----7~~~~-|
|----------------|-------|-----------|
|----------------|-------|-----------|

horn part:
|----------------------|------------|------------|
|-2-3--5--3-2--0-------|------------|------------|
|-----------------0~~~-|-2-4-2------|-2-----0~~~-|
|----------------------|--------2~~-|----2-------|
|----------------------|------------|------------|
|----------------------|------------|------------|

|----------------------|----------|--------------|---------------------------|
|-2-3--5--3-2--0-------|----------|--------------|---------------------------|
|-----------------0~~~-|-2-4-2~~~-|-2-1-----1-2~-|-1-------2-1-2--4--1-2~~~--|
|----------------------|----------|------4-------|----4~~--------------------|
|----------------------|----------|--------------|---------------------------|
|----------------------|----------|--------------|---------------------------|

|----------------------|------------|------------|
|-2-3--5--3-2--0-------|------------|------------|
|-----------------0~~~-|-2-4-2------|-2-----0~~~-|
|----------------------|--------2~~-|----2-------|
|----------------------|------------|------------|
|----------------------|------------|------------|

|----------------------|----------|--------------|---------------------------|
|-2-3--5--3-2--0-------|----------|--------------|---------------------------|
|-----------------0~~~-|-2-4-2~~~-|-2-1-----1-2~-|-1-------2-1-2--4--1-2~~~--|
|----------------------|----------|------4-------|----4~~--------------------|
|----------------------|----------|--------------|---------------------------|
|----------------------|----------|--------------|---------------------------|

next part:
|---------------------|--------------|---------------------|---------------------|
|---------------------|--------------|---------------------|---------------------|
|---------------------|--------------|-4--0----------------|---------------------|
|-4--0----------------|--------------|-------4--2--0-------|-------------1-2~~~~-|
|-------4--2--0-------|--------------|-----------------0~~-|-2~~~-2--4-----------|
|-----------------0~~-|-0--2--3--0~~-|---------------------|---------------------|

back to horn part:
|----------------------|------------|------------|
|-2-3--5--3-2--0-------|------------|------------|
|-----------------0~~~-|-2-4-2------|-2-----0~~~-|
|----------------------|--------2~~-|----2-------|
|----------------------|------------|------------|
|----------------------|------------|------------|

|----------------------|----------|--------------|---------------------------|
|-2-3--5--3-2--0-------|----------|--------------|---------------------------|
|-----------------0~~~-|-2-4-2~~~-|-2-1-----1-2~-|-1-------2-1-2--4--1-2~~~--|
|----------------------|----------|------4-------|----4~~--------------------|
|----------------------|----------|--------------|---------------------------|
|----------------------|----------|--------------|---------------------------|

and thats about it until the song fades out! classic song!
the Untouchables do an awesome ska version of this song too by the way
please comment and correct!
-Bert!

Tap to rate this tab
# A B C D E F G H I J K L M N O P Q R S T U V W X Y Z