Song name
# A B C D E F G H I J K L M N O P Q R S T U V W X Y Z

Ventures - Pipe Line tab

-----------------------------------------------------------------------------
			     The Ventures - Pipeline
-----------------------------------------------------------------------------
Tabbed by:niftypapaya
Email: thrice_rocks_15@hotmail.com

Tuning: Standard
kk so this is a great tab email me if you want...
-slide: /
-hammer on: h
-pull-off: p
-hold note: >
-Guitar 1
INTRO
e|-----------------------------------------------------|
B|-----------------------------------------------------|
G|-----------------------------------------------------|
D|-----------------------------------------------------|
A|-----------------------------------------------------|
E|-/13/12/11/10/9/8/7/6/5/4/3/2/1>---------------------|

-Guitar 2 (play while guitar 1 plays part 1, play once before guitar 1)

e|---------------------------------------------------------|
B|---------------------------------------------------------|
G|---------------------------------------------------------|
D|---------------------------------------------------------|
A|--2-2-2-2-2-2-2-2-2-2-2-2-2-2-2-2------------------------|
E|-0-3-0-3-0-3-0-3-0-3-0-3-0-3-0-3-------------------------|

-Guitar 1(pt.1)
e|---------------------------------|-------------|
B|---------------------------------|-------------|
G|---------------------------------|-------------|
D|--0-2-0-2-4-2-0-2-4-2-4-2-0-2-0--|--0-2-4-2-0--|
A|-2------------------------------2|-2-----------|
E|---------------------------------|-------------|

-Guitar 2 (play this while guitar 1 plays part 2)
e|---------------------------------------------------------|
B|---------------------------------------------------------|
G|---------------------------------------------------------|
D|--2-2-2-2-2-2-2-2-2-2-2-2-2-2-2-2------------------------|
A|-0-3-0-3-0-3-0-3-0-3-0-3-0-3-0-3-------------------------|
E|---------------------------------------------------------|

-Guitar 1(pt.2)
e|----------------------------------|-------------|
B|----------------------------------|-------------|
G|--0-2-0-2-4-2-0-2-4-2-4-0-2-4-2---|--0-2-4-2-0--|
D|-2------------------------------2-|-2-----------|
A|----------------------------------|-------------|
E|----------------------------------|-------------|

-Guitar 2(play this during gtr 1 pt.3)(switch posistionings at the same times as gtr.1)
e|---------------------------------------------------------------------------|
B|---------------------------------------------------------------------------|
G|---------------------------------------------------------------------------|
D|---------------------------------------------------------------------------|
A|-2-2-2-2-2-3-3-3-3-3-2-2-2-2-2-3-3-3-3-3-3-2-2-2-2-2-2-2-2-2-2-2-2-0-0-0-0-|
E|---------------------------------------------------------------------------|

E|-13/12/11/10/9/8/7/6/5/4/3/2/1/>--------------------------------------------

Guitar 1 (pt.3)(this is an F chord)

e|---------------------------------------------------------------------------|
B|-5-5-5-5-5-6-6-6-6-6-5-5-5-5-5-6-6-6-6-6-5-5-5-5-5-5-5-5-5-5-5-3-3-3-------|
G|-6-6-6-6-6-7-7-7-7-7-6-6-6-6-6-7-7-7-7-7-6-6-6-6-6-6-6-6-6-6-6-4-4-4-------|
D|-7-7-7-7-7-8-8-8-8-8-7-7-7-7-7-8-8-8-8-8-7-7-7-7-7-7-7-7-7-7-7-5-5-5-------|
A|---------------------------------------------------------------------------|
E|---------------------------------------------------------------------------|

Solo (kind of)
-Guitar 1(solo)/Guitar 2 (chords)
              Am(play 8 times fast)    G                       F
e|-8--------8-12-10p-8h-10p-8|-7-----7-10-8p-7h-8p-7--|-5-----5-8-7p-5h-7p-5--|
B|--10-10-10-----------------|--8-8-8-----------------|--6-6-6----------------|
G|---------------------------|------------------------|-----------------------|
D|---------------------------|------------------------|-----------------------|
A|---------------------------|------------------------|-----------------------|
E|---------------------------|------------------------|-----------------------|
          G
e|-7-----7-10-8p-7h-8p-7|----------------------------------------------------|
B|--8-8-8---------------|----------------------------------------------------|
G|----------------------|----------------------------------------------------|
D|----------------------|----------------------------------------------------|
A|----------------------|----------------------------------------------------|
E|----------------------|----------------------------------------------------|

Chords
   Am    G       F
e|--0--|--3---|--1--|
B|--1--|--3---|--1--|
G|--2--|--0---|--2--|
D|--2--|--0---|--3--|
A|--0--|--2---|-----|
E|-----|--3---|-----|

kk so thats about is enjoy email me if you want.
Tap to rate this tab
 
# A B C D E F G H I J K L M N O P Q R S T U V W X Y Z