Song name
# A B C D E F G H I J K L M N O P Q R S T U V W X Y Z

Ventures - Guitar Boogie Shuffle tab

This is the CORRECT way to play 
the guitar boogie. Please 
give any coment!!!!

Here we go:

Part 1.

e-----------------|
B-----------------|
G-----------------|  x2
D---------2-------|
A-----2-4---4-2---|
E-0-4-----------4-|


part 2.

e----------------|
B----------------|
G--------2-------|
D----2-4---4-2---|
A-0-4----------4-|
E----------------|

Then repeat part 1. Once

then after that:

Part 3.

e------------------|
B------------------|
G------------------|
D------------------|
A-2-4-5-4-2--------|
E-----------5-4-2--|

e------------|
B------------|
G------------|
D--------2-2-|
A----2-4-----|
E-0-4--------|

Cool riff!


Peace out!

@zzasin
Tap to rate this tab
# A B C D E F G H I J K L M N O P Q R S T U V W X Y Z