Song name
# A B C D E F G H I J K L M N O P Q R S T U V W X Y Z

Ventures - Diamond Head tab

Diamond Head by Ventures
Tabbed by Keisuke

PM=Palm Mute
h=hammeron
p=pulloff
\=slide down

Intro
  PM					   (scratch lower strings)
e-----------------------------------||------------------|
b----------------------------------.||.----------------.|
g-----------------------------------||------------------|
d----------------------------------.||.-------0-2-0----.|
a-----------------------------------||--0--3--------3---|
e-0-0-0-0-3-3-3-3-0-0-0-0-3-3-3-3---||------------------|

                                                         _________
Head                                                    |1.       |
e--------------------------------5-----7-----8-----7-------5------|
b----------------------------------5-----5-----5-----5-------5---.|
g--------5-----4----4-h5-p4----------5-----5-----5-----5-------5--|
d--7--7----7---5------------5--7---------------------------------.|
a-----------------------------------------------------------------|
e-----------------------------------------------------------------|

 ________________
|2.PM
e-----------------------------------------------------------------|
b-----------------------------------------------------------------|
g----5--6--7--7-p5---5--7--7-p5---5--7--7-p5---5--7--7-p5---------|
d--7---------------7------------7------------7------------7-------|
a-----------------------------------------------------------------|
e-----------------------------------------------------------------|

                                 PM
e----------------------------------------------------------------------------------|
b--10--8---------------------------------------------------------------------------|
g--------\7--5-------------------7--7-p5---5--7--7-p5---5--7--7-p5---5--7--7-p5----|
d---------------7--5---------------------7------------7------------7------------7--|
a---------------------\5--3--------------------------------------------------------|
e----------------------------------------------------------------------------------|

                 *Start at high fret pick 16th notes and slide down
e--------------------------------------------------------------------|
b--------------------------------------------------------------------|
g--9--7--------------------------------------------------------------|
d-------\7--5--------------------------------------------------------|
a--------------------------------------------------------------------|
e-----------------*-\-\-\-\-\-\-\-\-\-\-\-\-\-\-\-\------------------|


   Dm   Fm   Dm   Fm
e-----------------------------------------------------------------|
b--6----9----6----9----10--8--------------------------------------|
g--7----10---7----10---------\7--5--------------------------------|
d--7----10---7----10----------------7--5--------------------------|
a--5----8----5----8-----------------------\5--3-------------------|
e-----------------------------------------------------------------|


   Dm   Fm   Dm   Fm
e----------------------------------------------------------------|
b--6----9----6----9----------------------------------------------|
g--7----10---7----10---------------------------------------------|
d--7----10---7----10-----9-9-9-9-9-9-9-9-9-9-9-9-9-9-9-9---------|
a--5----8----5----8------7-7-7-7-7-7-7-7-7-7-7-7-7-7-7-7---------|
e----------------------------------------------------------------|
Tap to rate this tab
# A B C D E F G H I J K L M N O P Q R S T U V W X Y Z