Song name
# A B C D E F G H I J K L M N O P Q R S T U V W X Y Z

Ventures - Walk-dont Run tab

Rhythm intro
 Am      G       F       E
|5-5-5---3-3-3---1-1-1---0---0-0-0---------------------------|
|5-5-5---3-3-3---1-1-1---0---0-0-0---------------------------|
|5-5-5---4-4-4---2-2-2---1---1-1-1---------------------------|
|7-7-7---5-5-5---3-3-3---2---2-2-2---------------------------|
|7-7-7---5-5-5---3-3-3---2---2-2-2---------------------------|
|5-5-5---3-3-3---1-1-1---0---0-0-0---------------------------|


Lead
Riff 1
|------------------------------------------------------------|
|-----------------------1------------------------------------|
|-----2-------------0-2--------------------------------------|
|-2-----------0-2-3------------------------------------------|
|-------0-2-3------------------------------------------------|
|------------------------------------------------------------|

Riff 2
|------------------------------------------------------------|
|------------------------------------------------------------|
|-2-------------0-2-0----------------------------------------|
|---------0-2-3-------2--------------------------------------|
|---0-2-3----------------------------------------------------|
|------------------------------------------------------------|

Riff 3
|------------------------------------------------------------|
|------------------------------------------------------------|
|------------------------------------------------------------|
|-2-2-0-2---0-2-3-2-0-----h2p0----2--------------------------|
|-----------------------3------3----3------------------------|
|------------------------------------------------------------|

Riff 4
|------------------------------------------------------------|
|------------------------------------------------------------|
|----------------------------------------2--2--2--2--2-2-2-2-|
|---------0-2-3----5--5--5--5--5-5-5-5-----------------------|
|---0-2-3----------------------------------------------------|
|-3----------------------------------------------------------|

|------------------------------------------------------------|
|------------------------------------------------------------|
|-2-----2----4-----4----5~~~~--------------------------------|
|---3-----3----6-----6---------------------------------------|
|-----3----------7-------------7-7-5-5-3-3-2-2---------------|
|------------------------------------------------------------|

Playing order

Riff 1, Riff 2, Pause, Riff 1, Riff 2, Riff 3, Riff 4, Pause, Repeat 
Tap to rate this tab
 
# A B C D E F G H I J K L M N O P Q R S T U V W X Y Z