Song name
# A B C D E F G H I J K L M N O P Q R S T U V W X Y Z

Verax - In Your Eyes tab

                       intro    3x  :

E|----------------------------|
B|----------------------------|
G|-6-6-6--9--6--2-2-2--5------|
D|-6-6-6--9--6--2-2-2--5------|
A|-4-4-4--7--4--0-0-0--3------|
E|----------------------------|

                          1x :

E|----------------------|
B|----------------------|
G|-6-6-6--9--6--2-------|
D|-6-6-6--9--6--2-------|
A|-4-4-4--7--4--0-------|
E|----------------------|



solo:

E|-----------------------------------------------|
B|--9-7-9-9-7-9-9-7-9-9-7-9-7-8------------------|
G|-----------------------------------------------|

Tap to rate this tab
# A B C D E F G H I J K L M N O P Q R S T U V W X Y Z