Song name
# A B C D E F G H I J K L M N O P Q R S T U V W X Y Z

Verbal Abuse - Were An American Band tab

we're an american band


verbal abuse


tabbed by Rudy Guzman


guzman_84@hotmail.com

TUNING:

1-e   
2-B    
3-G   
4-D
5-A
6-E

|--------------------------------------------------------------------------------------|
|--------------------------------------------------------------------------------------|
|-7--7-7-7-7-7-7-7-7-7-7-7-7-7-7-7-7--5--5-5-5-5-5-5-5-5-5-5-5-5-5--3--3-3-3-3-3-3-3-3-|
|-7--7-7-7-7-7-7-7-7-7-7-7-7-7-7-7-7--5--5-5-5-5-5-5-5-5-5-5-5-5-5--3--3-3-3-3-3-3-3-3-|
|-5--5-5-5-5-5-5-5-5-5-5-5-5-5-5-5-5--3--3-3-3-3-3-3-3-3-3-3-3-3-3--1--1-1-1-1-1-1-1-1-|
|--------------------------------------------------------------------------------------|

|----------------------------------------------------------|
|----------------------------------------------------------|
|-5--5-5-5-5-5-5-5-5--7--7-7-7-7-7-7-7-7-7-7-7----7b~~~~---|
|-5--5-5-5-5-5-5-5-5--7--7-7-7-7-7-7-7-7-7-7-7-------------|
|-3--3-3-3-3-3-3-3-3--5--5-5-5-5-5-5-5-5-5-5-5-------------|
|----------------------------------------------------------|

 REPEAT 2 TIMES
|-------------------------------------------------------------------|
|-------------------------------------------------------------------|
|-7-------------------7-------------------5-X-5-5--X-5-5--10-9-7--5-|
|-7--X-X-X-X-X-X-X-X--7--X-X-X-X-X-X-X-X--5-X-5-5--X-5-5--10-9-7--5-|
|-5--X-X-X-X-X-X-X-X--5--X-X-X-X-X-X-X-X--3-X-3-3--X-3-3--8--7-5--3-|
|----X-X-X-X-X-X-X-X-----X-X-X-X-X-X-X-X----------------------------|

VERSE
|-------------------------------------------------------------------|
|-------------------------------------------------------------------|
|-7-------------------7-------------------5-X-5-5--X-5-5--10-9-7--5-|
|-7--X-X-X-X-X-X-X-X--7--X-X-X-X-X-X-X-X--5-X-5-5--X-5-5--10-9-7--5-|
|-5--X-X-X-X-X-X-X-X--5--X-X-X-X-X-X-X-X--3-X-3-3--X-3-3--8--7-5--3-|
|----X-X-X-X-X-X-X-X-----X-X-X-X-X-X-X-X----------------------------|


|---------------------------------------------------------------|
|---------------------------------------------------------------|
|-12-12-12-12-12-12-12-12--7-7-7-7-7-7-7-7-7-7--5-5-5-5-5-5-5-5-|
|-12-12-12-12-12-12-12-12--7-7-7-7-7-7-7-7-7-7--5-5-5-5-5-5-5-5-|
|-10-10-10-10-10-10-10-10--5-5-5-5-5-5-5-5-5-5--3-3-3-3-3-3-3-3-|
|---------------------------------------------------------------|


|--------------------------------------------------------------------------------------|
|--------------------------------------------------------------------------------------|
|-7--7-7-7-7-7-7-7-7-7-7-7-7-7-7-7-7--5--5-5-5-5-5-5-5-5-5-5-5-5-5--3--3-3-3-3-3-3-3-3-|
|-7--7-7-7-7-7-7-7-7-7-7-7-7-7-7-7-7--5--5-5-5-5-5-5-5-5-5-5-5-5-5--3--3-3-3-3-3-3-3-3-|
|-5--5-5-5-5-5-5-5-5-5-5-5-5-5-5-5-5--3--3-3-3-3-3-3-3-3-3-3-3-3-3--1--1-1-1-1-1-1-1-1-|
|--------------------------------------------------------------------------------------|

|----------------------------------------------------------|
|----------------------------------------------------------|
|-5--5-5-5-5-5-5-5-5--7--7-7-7-7-7-7-7-7-7-7-7-------------|
|-5--5-5-5-5-5-5-5-5--7--7-7-7-7-7-7-7-7-7-7-7-------------|
|-3--3-3-3-3-3-3-3-3--5--5-5-5-5-5-5-5-5-5-5-5-------------|
|----------------------------------------------------------|

 REPEAT 2 TIMES
|-------------------------------------------------------------------|
|-------------------------------------------------------------------|
|-7-------------------7-------------------5-X-5-5--X-5-5--10-9-7--5-|
|-7--X-X-X-X-X-X-X-X--7--X-X-X-X-X-X-X-X--5-X-5-5--X-5-5--10-9-7--5-|
|-5--X-X-X-X-X-X-X-X--5--X-X-X-X-X-X-X-X--3-X-3-3--X-3-3--8--7-5--3-|
|----X-X-X-X-X-X-X-X-----X-X-X-X-X-X-X-X----------------------------|

VERSE
|-------------------------------------------------------------------|
|-------------------------------------------------------------------|
|-7-------------------7-------------------5-X-5-5--X-5-5--10-9-7--5-|
|-7--X-X-X-X-X-X-X-X--7--X-X-X-X-X-X-X-X--5-X-5-5--X-5-5--10-9-7--5-|
|-5--X-X-X-X-X-X-X-X--5--X-X-X-X-X-X-X-X--3-X-3-3--X-3-3--8--7-5--3-|
|----X-X-X-X-X-X-X-X-----X-X-X-X-X-X-X-X----------------------------|


|---------------------------------------------------------------|
|---------------------------------------------------------------|
|-12-12-12-12-12-12-12-12--7-7-7-7-7-7-7-7-7-7--5-5-5-5-5-5-5-5-|
|-12-12-12-12-12-12-12-12--7-7-7-7-7-7-7-7-7-7--5-5-5-5-5-5-5-5-|
|-10-10-10-10-10-10-10-10--5-5-5-5-5-5-5-5-5-5--3-3-3-3-3-3-3-3-|
|---------------------------------------------------------------|

|--------------------------------------------------------------------------------------|
|--------------------------------------------------------------------------------------|
|-7--7-7-7-7-7-7-7-7-7-7-7-7-7-7-7-7--5--5-5-5-5-5-5-5-5-5-5-5-5-5--3--3-3-3-3-3-3-3-3-|
|-7--7-7-7-7-7-7-7-7-7-7-7-7-7-7-7-7--5--5-5-5-5-5-5-5-5-5-5-5-5-5--3--3-3-3-3-3-3-3-3-|
|-5--5-5-5-5-5-5-5-5-5-5-5-5-5-5-5-5--3--3-3-3-3-3-3-3-3-3-3-3-3-3--1--1-1-1-1-1-1-1-1-|
|--------------------------------------------------------------------------------------|

|----------------------------------------------------------|
|----------------------------------------------------------|
|-5--5-5-5-5-5-5-5-5--7--7-7-7-7-7-7-7-7-7-7-7-------------|
|-5--5-5-5-5-5-5-5-5--7--7-7-7-7-7-7-7-7-7-7-7-------------|
|-3--3-3-3-3-3-3-3-3--5--5-5-5-5-5-5-5-5-5-5-5-------------|
|----------------------------------------------------------|

|--------------------------------------------------------------------------------------|
|--------------------------------------------------------------------------------------|
|-7--7-7-7-7-7-7-7-7-7-7-7-7-7-7-7-7--5--5-5-5-5-5-5-5-5-5-5-5-5-5--3--3-3-3-3-3-3-3-3-|
|-7--7-7-7-7-7-7-7-7-7-7-7-7-7-7-7-7--5--5-5-5-5-5-5-5-5-5-5-5-5-5--3--3-3-3-3-3-3-3-3-|
|-5--5-5-5-5-5-5-5-5-5-5-5-5-5-5-5-5--3--3-3-3-3-3-3-3-3-3-3-3-3-3--1--1-1-1-1-1-1-1-1-|
|--------------------------------------------------------------------------------------|

|----------------------------------------------------------|
|----------------------------------------------------------|
|-5--5-5-5-5-5-5-5-5--7--7-7-7-7-7-7-7-7-7-7-7-------------|
|-5--5-5-5-5-5-5-5-5--7--7-7-7-7-7-7-7-7-7-7-7-------------|
|-3--3-3-3-3-3-3-3-3--5--5-5-5-5-5-5-5-5-5-5-5-------------|
|----------------------------------------------------------|

|------------|
|------------|
|-5---5--7B--|
|---7--------|
|------------|
|------------|

|-------------------------------------------------------------------|
|-------------------------------------------------------------------|
|-7-------------------7-------------------5-X-5-5--X-5-5--10-9-7--5-|
|-7--X-X-X-X-X-X-X-X--7--X-X-X-X-X-X-X-X--5-X-5-5--X-5-5--10-9-7--5-|
|-5--X-X-X-X-X-X-X-X--5--X-X-X-X-X-X-X-X--3-X-3-3--X-3-3--8--7-5--3-|
|----X-X-X-X-X-X-X-X-----X-X-X-X-X-X-X-X----------------------------|

|------------------------------------------------------------------|
|------------------------------------------------------------------|
|--7--7-7-7-7-7-7-7-7-7-7-7-7-7-7-7-7-7-7-7-7-7-7-7-7-7-7-7---5--7-|
|--7--7-7-7-7-7-7-7-7-7-7-7-7-7-7-7-7-7-7-7-7-7-7-7-7-7-7-7---5--7-|
|--5--5-5-5-5-5-5-5-5-5-5-5-5-5-5-5-5-5-5-5-5-5-5-5-5-5-5-5---3--5-|
|------------------------------------------------------------------|
	
Tap to rate this tab
 
# A B C D E F G H I J K L M N O P Q R S T U V W X Y Z