Song name
# A B C D E F G H I J K L M N O P Q R S T U V W X Y Z

Verbena - Lovely Isnt Love tab

Song:      Lovely Isn't Love
Album:     Into The Pink
Band:      Verbena
Tabbed By: Vanpero

Dropped C Tunning  Transposed from piano to guitar
1 = D  4 = C
2 = A  5 = G
3 = F  6 = C

Tmepo = 80

Intro: 
  Eight notes--------------------------------------- Whole note------
D|----------------|----------------|----------------|----------------|
A|----------------|----------------|----------------|----------------|
F|----------------|----------------|----------------|----------------|
C|-----5---8---5-8|-----5---8-----5|-----5---8-----5|-5--------------|
G|---5------------|---5---------5--|---5---------5--|-5--------------|
C|-5-----5---5----|-5-----5---5----|-5-----5---5----|-5--------------|

Verse:
  
  Eight notes--------------------------------------------------------
D|----------------|----------------|----------------|----------------|
A|----------------|----------------|----------------|----------------|
F|----------------|---------3---2--|---------2---3--|----------------|
C|-----5---8---7-8|-----3----------|-----1----------|-----0---4---0-7|
G|---5------------|---3------------|---1------------|---0------------|
C|-5-----5---5----|-3-----3---3---3|-1-----1---1---1|-0-----0---0----|
   
  Eight notes-----------------------------------------------Half note
D|----------------|----------------|----------------|----------------|
A|----------------|----------------|----------------|----------------|
F|----------------|---------3---2--|---------2---3--|----------------|
C|-----5---8---7-8|-----3----------|-----1----------|-----0---4------|
G|---5------------|---3------------|---1------------|---0------------|
C|-5-----5---5----|-3-----3---3---3|-1-----1---1---1|-0-----0--------|

Chorus:
   
  Eight notes--------------------------------------------------------
D|----------------|----------------|----------------|----------------|
A|----------------|----------------|----------------|----------------|
F|-3---3---3---3--|-5---5---5---5--|-7---7---7---7--|-2---2---2---2--|
C|-1---1---1---1--|-3---3---3---3--|-5---5---5---5--|-0---0---0---0--|
G|-1-1-1-1-1-1-1-1|-3-3-3-3-3-3-3-3|-5-5-5-5-5-5-5-5|-0-0-0-0-0-0-0-0|
C|-1-1-1-1-1-1-1-1|-3-3-3-3-3-3-3-3|-5-5-5-5-5-5-5-5|-0-0-0-0-0-0-0-0|
   
  Eight notes-----------------------------------------Whole note-----
D|----------------|----------------|----------------|----------------|
A|----------------|----------------|----------------|----------------|
F|-3---3---3---3--|-5---5---5---5--|-7---7---7---7--|-2--------------|
C|-1---1---1---1--|-3---3---3---3--|-5---5---5---5--|-0--------------|
G|-1-1-1-1-1-1-1-1|-3-3-3-3-3-3-3-3|-5-5-5-5-5-5-5-5|-0--------------|
C|-1-1-1-1-1-1-1-1|-3-3-3-3-3-3-3-3|-5-5-5-5-5-5-5-5|-0--------------|

Outro:
   
  Eight notes----------------------
D|----------------|----------------|
A|----------------|----------------|
F|----------------|----------------| X2
C|-----5---8---5-8|-----5---8-----5|
G|---5------------|---5---------5--|
C|-5-----5---5----|-5-----5---5----|

  Whole note------
D|----------------|
A|----------------|
F|----------------|
C|-5--------------|
G|-5--------------|
C|-5--------------|
Tap to rate this tab
# A B C D E F G H I J K L M N O P Q R S T U V W X Y Z