Song name
# A B C D E F G H I J K L M N O P Q R S T U V W X Y Z

Verde 70 - En La Inmensidad tab

Esta cancion es d un grupo ecuatoriano muy bueno espero no haberme equivocado en las 
q la disfruten...


INTRO

Guitarra 1
E ------------------------------------------------------------------------||
B -6-6h8-10-8-10-8--------------------------------------------------------||
G -------------------5-5h7-9-7-9-7---7-7h9-10-9-10-9----------------------||
D -----------------------------------------------------8-8h10-12-10-12-10-||
A ------------------------------------------------------------------------||
E ------------------------------------------------------------------------||

Guitarra 2
e|------------------------------------------------------------------------||
B|-----------------------5---5--5---5----6---6--6---6---------------------||
G|----2----2--2----2-----5---5--5---5----7---7--7---7----7---7--7---7-----||
D|----3----3--3----3-----5---5--5---5----7---7--7---7----8---8--8---8-----||
A|----3----3--3----3-----3---3--3---3----5---5--5---5----8---8--8---8-----||
E|----1----1--1----1-------------------------------------6---6--6---6-----||


Verso

Guitarra 1
e|----------------------------------------------------------||
B|----------------------------------------------------------||
G|---2-2-2-2-------5-5-5-5-------7-7-7-7--------------------||
D|---3-3-3-3-------5-5-5-5-------7-7-7-7-------8-8-8-8------||
A|---3-3-3-3-------3-3-3-3-------5-5-5-5-------8-8-8-8------||
E|---1-1-1-1-----------------------------------6-6-6-6------||

Guitarra 2
E|-----------1-1-----------3-3-----------5-5-----------6-6------------||
B|-----------1-1-----------5-5-----------6-6-----------6-6------------||
G|-----------2-2-----------5-5-----------7-7-----------7-7------------||
D|--------------------------------------------------------------------||
A|--------------------------------------------------------------------||
E|--------------------------------------------------------------------||

Guitarra 1
e|------------------------------------------------------------------------||
B|------------------------------------------------------------------------||
G|---2-2-2-2-------5-5-5-5-------7-7-7-7----------------------------------||
D|---3-3-3-3-------5-5-5-5-------7-7-7-7-------8-8-8-8-------8-8/10-------||
A|---3-3-3-3-------3-3-3-3-------5-5-5-5-------8-8-8-8-------8-8/10-------||
E|---1-1-1-1-----------------------------------6-6-6-6-------6-6/8--------||

Guitarra 2
e|----------1-1-1-1-------3-3-3-3-------5-5-5-5-------6-6-6-6-6-88--------||
B|----------1-1-1-1-------5-5-5-5-------6-6-6-6-------6-6-6-6-6-88--------||
G|----------2-2-2-2-------5-5-5-5-------7-7-7-7-------7-7-7-7-7-99--------||
D|------------------------------------------------------------------------||
A|------------------------------------------------------------------------||
E|------------------------------------------------------------------------||

Precoro

Guitarra 1
E ------------------------------------------------------------------------||
B -6-6h8-10-8-10-8--------------------------------------------------------||
G -------------------5-5h7-9-7-9-7---7-7h9-10-9-10-9----------------------||
D -----------------------------------------------------8-8h10-12-10-12-10-||
A ------------------------------------------------------------------------||
E ------------------------------------------------------------------------||

Guitarra 2
e|------------------------------------------------------------------------||
B|-----------------------5---5--5---5----6---6--6---6---------------------||
G|----2----2--2----2-----5---5--5---5----7---7--7---7----7---7--7---7-----||
D|----3----3--3----3-----5---5--5---5----7---7--7---7----8---8--8---8-----||
A|----3----3--3----3-----3---3--3---3----5---5--5---5----8---8--8---8-----||
E|----1----1--1----1-------------------------------------6---6--8---8-----||

Guitarra 1
E ------------------------------------------------------------------------||
B -6-6h8-10-8-10-8--------------------------------------------------------||
G -------------------5-5h7-9-7-9-7---7-7h9-10-9-10-9----------------------||
D -----------------------------------------------------8-8h10-12-10-12-10-||
A ------------------------------------------------------------------------||
E ------------------------------------------------------------------------||

Guitarra 2
e|------------------------------------------------------------------------||
B|-----------------------5---5--5---5----6---6--6---6---------------------||
G|----2----2--2----2-----5---5--5---5----7---7--7---7----7---7--7---7-----||
D|----3----3--3----3-----5---5--5---5----7---7--7---7----8---8--8---8-----||
A|----3----3--3----3-----3---3--3---3----5---5--5---5----8---8--8---8-----||
E|----1----1--1----1-------------------------------------6---6--8---8-----||


Coro
(dos guitarras tocan esto)

e|-----------------------------------------------------------||
B|-----------------------------------------------------------||
G|----------------------5-----7---7--------------------------||
D|----------------------5-----7---7------8---8-----3---3-----||
A|----------------------3-----5---5------8---8-----3---3-----||
E|---------------------------------------6---6-----1---1-----||


e|-----------------------------------------------------------||
B|-----------------------------------------------------------||
G|---5---5-----7---7-----------------------------------------||
D|---5---5-----7---7-----8---8------3---3-------7---7--------||
A|---3---3-----5---5-----8---8------3---3-------7---7--------||
E|-----------------------6---6------1---1-------5---5--------||

e|-------------------------------||
B|-------------------------------||
G|------7---7--------------------||
D|------7---7-------8---8--------||
A|------5---5-------8---8--------||
E|------------------6---6--------||

e|---------------------------------------------------------||
B|---------------------------------------------------------||
G|---------------5----5-----7---7--------------------------||
D|----3---3------5----5-----7---7------8---8-----3---3-----||
A|----3---3------3----3-----5---5------8---8-----3---3-----||
E|----1---1----------------------------6---6-----1---1-----||

e|-----------------------------------------------------------||
B|-----------------------------------------------------------||
G|---5---5-----7---7-----------------------------------------||
D|---5---5-----7---7-----8---8------3---3-------7---7--------||
A|---3---3-----5---5-----8---8------3---3-------7---7--------||
E|-----------------------6---6------1---1-------5---5--------||

e|-------------------------------------------||
B|-------------------------------------------||
G|------7---7---------------------------5----||
D|------7---7-------8---8-------3---3---5----||
A|------5---5-------8---8-------3---3---3----||
E|------------------6---6-------1---1--------||

Intro

Guitarra 1
E ------------------------------------------------------------------------||
B -6-6h8-10-8-10-8--------------------------------------------------------||
G -------------------5-5h7-9-7-9-7---7-7h9-10-9-10-9----------------------||
D -----------------------------------------------------8-8h10-12-10-12-10-||
A ------------------------------------------------------------------------||
E ------------------------------------------------------------------------||

Guitarra 2
e|------------------------------------------------------------------------||
B|-----------------------5---5--5---5----6---6--6---6---------------------||
G|----2----2--2----2-----5---5--5---5----7---7--7---7----7---7--7---7-----||
D|----3----3--3----3-----5---5--5---5----7---7--7---7----8---8--8---8-----||
A|----3----3--3----3-----3---3--3---3----5---5--5---5----8---8--8---8-----||
E|----1----1--1----1-------------------------------------6---6--8---8-----||

Guitarra 1
E ------------------------------------------------------------------------||
B -6-6h8-10-8-10-8--------------------------------------------------------||
G -------------------5-5h7-9-7-9-7---7-7h9-10-9-10-9----------------------||
D -----------------------------------------------------8-8h10-12-10-12-10-||
A ------------------------------------------------------------------------||
E ------------------------------------------------------------------------||


Guitarra 2
e|------------------------------------------------------------------------||
B|-----------------------5---5--5---5----6---6--6---6---------------------||
G|----2----2--2----2-----5---5--5---5----7---7--7---7----7---7--7---7-----||
D|----3----3--3----3-----5---5--5---5----7---7--7---7----8---8--8---8-----||
A|----3----3--3----3-----3---3--3---3----5---5--5---5----8---8--8---8-----||
E|----1----1--1----1-------------------------------------6---6--8---8-----||


Puente

Guitarra 1
	   F	        C	     D	           Bb
e|--------1------------3-----------5-------------6---------||
B|-------1------------5-----------6-------------6----------||
G|------2------------5-----------7-------------7-----------||
D|-----3------------5-----------7-------------8------------||
A|----3------------3-----------5-------------8-------------||
E|---1--------------------------------------6--------------||

Guitarra 2

e|-------------8------------8-----------8-------------8----||
B|-----------6------------6-----------6-------------6------||
G|---------------------------------------------------------||
D|---------------------------------------------------------||
A|---------------------------------------------------------||
E|---------------------------------------------------------||

Precoro

Coro

Solo----> lo mandare pronto...

Coro

Y FIN
Tap to rate this tab
 
# A B C D E F G H I J K L M N O P Q R S T U V W X Y Z