Song name
# A B C D E F G H I J K L M N O P Q R S T U V W X Y Z

Verdena - Elefante tab

Help us improve GuitareTab! Take a short survey!
Verdena
VIBA
Drop D-tuning

|-------------------------------------------------------------------------------|
|-------------------------------------------------------------------------------|
|14-14--14-14-14-12--12-12--12-12-12-12-11-11--11-11-11-12\11-11-11-12\11-11-11-|
|-------------------------------------------------------------------------------|
|12-12--12-12-12-10--10-10--10-10-10-10-9--9---9--9--9--10\9--9--9--10\9--9--9--|
|-------------------------------------------------------------------------------|

 |-------------------------------------------------------------------------------|
|--------------------------------------------------------------------------------|
|14-14--14-14-14-12--12-12--16-16-16-16-11-11--11-11-11-12\11-11-11-12\11-11-11--|
|--------------------------------------------------------------------------------|
|12-12--12-12-12-10--10-10--14-14-14-14-9--9---9--9--9--10\9--9--9--10\9--9--9---|
|--------------------------------------------------------------------------------|

[VERSO]

|0--0--0-0-0-0--0-0--0-0-0-0-0--0--0-0-0-0--0-0--0-0-0-0-|
|0--0--0-0-0-0--0-0--0-0-0-0-0--0--0-0-0-0--0-0--0-0-0-0-|
|4--4--4-4-4-4--4-4--4-4-4-4-4--4--4-4-4-4--4-4--4-4-4-4-|
|2--2--2-2-2-2--2-2--2-2-2-2-2--2--2-2-2-0--0-0--0-0-0-0-|
|3--3--3-3-3-3--3-3--3-3-3-3-2--2--2-2-2-2--2-2--2-2-2-2-|
|----------------------------0--0--0-0-0-3--3-3--3-3-3-3-|

         sono sveglio o forse no,      ma non m'importa
     2nd. non mi spiego quasi mai      io non ho fretta

         tu sei l'unica per me
     2nd. voglio bere un p di me

         sar lento quanto vuoi      tu non ti senti
     2nd. forse sbaglio o forse no   tu non ti senti

|0--0--0-0-0-0--0-0--0-0-0-0-0------------------------------|
|0--0--0-0-0-0--0-0--0-0-0-0-0------------0(only 2nd time)--|
|4--4--4-4-4-4--4-4--4-4-4-4-4------------------------------|
|2--2--2-2-2-2--2-2--2-2-2-2-2------------------------------|
|3--3--3-3-3-3--3-3--3-3-3-3-0------------------------------|
|-----------------------------------------------------------|


[RIT]
 G                          Em
|---------------------------0-0--3-3-3-3--3-3--3-3-3-3-|
|---------------------------0-0--0-0-0-0--0-0--0-0-0-0-|
|4-4--4-4-4-4--4-4--4-4-4-4-0-0--0-0-0-0--0-0--0-0-0-0-|
|5-5--5-5-5-5--5-5--5-5-5-5-2-2--2-2-2-2--2-2--2-2-2-2-|
|5-5--5-5-5-5--5-5--5-5-5-5-2-2--2-2-2-2--2-2--2-2-2-2-|
|3-3--3-3-3-3--3-3--3-3-3-3-0-0--0-0-0-0--0-0--0-0-0-0-|


|-------------------------------------------------------|
|5-5--5-5-5-5--5-5--5-5-5-5-7-7--7-7-7-7----------------|
|5-5--5-5-5-5--5-5--5-5-5-5-7-7--7-7-7-7----------------|
|5-5--5-5-5-5--5-5--5-5-5-5-7-7--7-7-7-7----------------|
|3-3--3-3-3-3--3-3--3-3-3-3-5-5--5-5-5-5----------------|
|---------------------------------------x/\-x/\-x/\-x---|\ (<-slide)

che ci sei        quando non__ mi vuoi

 G                          Em
                    io sto be__ne                  com'

 C                          D
buio sai            non ti sba__gli mai

***Di nuovo [verso] e [RIT] e poi:

[BRIDGE]
 C5                   C(5b)       C5         E5              D5
|-----------------------------------------------------------------------------|
|-----------------------------------------------------------------------------|
|---------------------------------------------9-9-9-9-9-9-9-9-7-7-7-7-7-7-7-7-|
|10-10-10-10-10-10-10-10-10-10-10-10-10-10-10-9-9-9-9-9-9-9-9-7-7-7-7-7-7-7-7-|
|10-10-10-10-10-10-10-9--9--9--9--10-10-10-10-7-7-7-7-7-7-7-7-5-5-5-5-5-5-5-5-|
|8--8--8--8--8--8--8--8--8--8--8--8--8--8--8----------------------------------|

                                            heh!


 C5                   C(5b)       C5         E5              D5

 C5                   C(5b)       C5         E5              D5
cos__________      vici__________na       a me                      ma cos


 C5                   C(5b)       C5         E5              D5
fuori_____                        da         me


 C5                   C(5b)       C5         E5              D5
in fondo               tu         mi        vuoi                     e se mi


 C5                   C(5b)       C5         E5              D5
vuoi                              io         volo____________________________


#riff (come prima) 2 volte
cantando:
io volo_____________
volo________________

[RIFF FINALE]

     (<-acc.basso)
|------------------------------------------------------------|
|------------------------------------------------------------|
|12\11-11-11-12\11-11-11-12\11-11-11-12\11-11-11-12\11-11-11-|
|------------------------------------------------------------|
|10\9--9--9--10\9--9--9--10\9--9--9--10\9--9--9--10\9--9--9--|
|------------------------------------------------------------|

|----------------------------------------------------------------|
|----------------------------------------------------------------|
|12\--x-x-x-x-x-x-x-x-x-11/12-12-12-12-12-12-12\-x-x-x-x-x-x-x-x-|
|-----x-x-x-x-x-x-x-x-x--------------------------x-x-x-x-x-x-x-x-|
|10\--x-x-x-x-x-x-x-x-x-9-/10-10-10-10-10-10-10\-x-x-x-x-x-x-x-x-|
|----------------------------------------------------------------|


|-----------------------------------------------------------------|
|-----------------------------------------------------------------|
|11/12-12-12-12-12-12-11\--x-x-x-x-x-x-x-11/12-12-12-12-12-12-12\-|
|--------------------------x-x-x-x-x-x-x--------------------------|
|9-/10-10-10-10-10-10-9-\--x-x-x-x-x-x-x-9-/10-10-10-10-10-10-10\-|
|-----------------------------------------------------------------|


|---------------------------------------|
|---------------------------------------|
|x-x-x-x-x-x-x-x-x-11/12-12-12-12-12-12-|
|x-x-x-x-x-x-x-x-x----------------------|
|x-x-x-x-x-x-x-x-x-9-/10-10-10-10-10-10-|
|---------------------------------------|

 C                                   E                 G
|------------------------------------------------------------------|
|------------------------------------------------------------------|
|14-14-14-14-14-14-11/12-12-12-12-12-11-11-11-11-11-11-12-12-12-12-|
|------------------------------------------------------------------| 2 volte
|12-12-12-12-12-12-9-/10-10-10-10-10-9--9--9--9--9--9--10-10-10-10-|
|------------------------------------------------------------------|

 C                                   E                 G
|------------------------------------------------------------------|
|------------------------------------------------------------------|
|16-16-16-16-16-16-11/12-12-12-12-12-11-11-11-11-11-11-12-12-12-12-|
|------------------------------------------------------------------|
|14-14-14-14-14-14-9-/10-10-10-10-10-9--9--9--9--9--9--10-10-10-10-|
|------------------------------------------------------------------|


 C                                      E                    G
|------------------------------------------------------------------------------|
|------------------------------------------------------------------------------|
|16-16-16-16-16-16-19-19-19-19-19-19-19-21-21-21-21-21-21-21-21-21-21-21-21-21-|
|------------------------------------------------------------------------------|
|14-14-14-14-14-14-17-17-17-17-17-17-17-19-19-19-19-19-19-19-19-19-19-19-19-19-|
|------------------------------------------------------------------------------|


|---------------------------------------------------------------------------|
|---------------------------------------------------------------------------|
|21--------21----21\19--19\17----16--16/19-19\14\12-12----12\11-11/12----12-|
|---------------------------------------------------------------------------|
|19-----19----19--------------15-14--14/17----12\10----10-------9-/10-10----|
|---------------------------------------------------------------------------|

                E         G        C
|---------------------------------------------------------------------------|
|---------------------------------------------------------------------------|
|--11/12-12\7-7/9-9\4---4/7-7---7\------------------------------------------|
|---------------------------------------------------------------------------|
|9---------\5-5/7-----2--/5---5----3----------------------------------------|
|---------------------------------------------------------------------------|
Related for Elefante tab