Guitaretab - guitar tabs
Song name
# A B C D E F G H I J K L M N O P Q R S T U V W X Y Z

Verdena - Logorrea tab

 intro batteria poi chitarra e batteria x2
dopo entra pure il basso sempre sullo stesso riff


Big Muff

|-----------------------------------------------------------------------------------
|------3-3-------3-3------3-3---------3-------6-6-----6-6------6-6--------5
|------3-3-------3-3------3-3---------3-------6-6-----6-6------6-6--------6
|----------------------------------------------------------------------------------
|----------------------------------------------------------------------------------
|-3-3-------3-3------3-3-------3-3-3----6-6------6-6------6-6------5-5-5

|-----------------------------------------------------------------------------------
|------3-3-------3-3------3-3---------3-------6-6-----6-6------6-6--------5
|------3-3-------3-3------3-3---------3-------6-6-----6-6------6-6--------6
|----------------------------------------------------------------------------------
|----------------------------------------------------------------------------------
|-3-3-------3-3------3-3-------3-3-3----6-6------6-6------6-6------5-5-5---

Verso

nu-ds1

    con il basso che tiene la nota di sol              basso al 6 tasto  basso al 5
|-----------------------------------------------------------------------------------|
|-----------------------------------------------------------------------------------|
|-6-6-6-6-6-6-6-6-6-6-6-6-6-6-6-6-6-6-6-5-5-5-5-5-5-5-5-5-3-3-3-3-3-3-3-------------|
|-----------------------------------------------------------------------------------|
|-4-4-4-4-4-4-4-4-4-4-4-4-4-4-4-4-4-4-4-3-3-3-3-3-3-3-3-3-1-1-1-1-1-1-1-------------|
|-----------------------------------------------------------------------------------|
gli Espeeerti di moo--o                                     da-                           aaaa
si graattano la gooo                                          laa                           
ed  giuuustooo  oppure                                   nooo
capirne il seeenso eeeti-                                   coo           ingoia un rospoooo

[ Tab from: http://www.guitaretab.com/v/verdena/177301.html ]
|-----------------------------------------------------------------------------------|
|------3-3-------3-3------3-3---------3-------6-6-----6-6------6-6--------5---------|
|------3-3-------3-3------3-3---------3-------6-6-----6-6------6-6--------6---------|
|-----------------------------------------------------------------------------------|
|-----------------------------------------------------------------------------------|
|-3-3-------3-3------3-3-------3-3-3----6-6------6-6------6-6------5-5-5------------|

|-----------------------------------------------------------------------------------|
|------3-3-------3-3------3-3---------3-------6-6-----6-6------6-6--------5---------|
|------3-3-------3-3------3-3---------3-------6-6-----6-6------6-6--------6---------|
|-----------------------------------------------------------------------------------|
|-----------------------------------------------------------------------------------|
|-3-3-------3-3------3-3-------3-3-3----6-6------6-6------6-6------5-5-5------------|

il secondo verso  uguale al primo

stacco di basso

|--------------------------------------------------------------|
|--------------------------------------------------------------|
|--------------------------------------------------------------|
|-3-3-3-33-3-0-3-3-3-33-3-0-6-6-6-66-6-0-6-6-6-66-5-0----------|
dopo un p entra la chitarra con l'assolo


|------------0-0-------------------------------0-0-0-0-0-0-0-0---------|
|--3-3-3-3-8-10-8-10b11--11-11-11b10-8-6-6-6-2-6-6-6-2-----------------|
|----------------------------------------------------------------------|
|----------------------------------------------------------------------|
|----------------------------------------------------------------------|
|----------------------------------------------------------------------|
questo assolo x 4 volte l'ultima volta cambia la fine
al posto di

|-0-0-0-0-0-0-0-0
|-6-6-6-2-6-6-6-2

|0-0-0-0-0-0-0-0-0-0
|6-6-6-5-6-5-6b8-6-2

chiusura uguale alla fine!!
spero che sia uguale
evrybody let's rock
thank Dam
thanks to davide for some help1
Related for Logorrea tab