Song name
# A B C D E F G H I J K L M N O P Q R S T U V W X Y Z

Verdena - Apice tab

Verdena - Apice

Intro

|-------------x-x-x-x-|   |-------------|
|-----0-----0-x-x-x-x-|   |-----------1-|
|-------------x-x-x-x-|   |-------------| X4
|---4-----4---x-x-x-x-|   |---4---2-----|
|-2-----3-----x-x-x-x-|   |-3---0-------|
|-------------x-x-x-x-|   |-------------|


Verse 1
|----------------------------------------------------|
|-----0-----0------------1------0-----0------------1-|
|----------------------------------------------------| X4
|---4-----4------4---2--------4-----4----------2-----|
|-2-----3------3---0--------2-----3------3-2-0-------|
|----------------------------------------------------|

  Lei  non    qua          ma  parla  con  me
  questa                   l' abitudine
  C' un mostro fra noi     e non molla mai
  controlla                 ogni  cosa...

|-0-0-0-0-0-0-0-0--0-0-0-0-0-0-0-0--0-0-0-0-0-0-0-0--0-0-0-0-0-0-0-0-|
|-0-0-0-0-0-0-0-0--0-0-0-0-0-0-0-0--0-0-0-0-0-0-0-0--0-0-0-0-0-0-0-0-|
|-0-0-0-0-0-0-0-0--0-0-0-0-0-0-0-0--0-0-0-0-0-0-0-0--0-0-0-0-0-0-0-0-| X2
|-4-4-4-4-4-4-4-4--4-4-4-4-4-4-4-4--2-2-2-2-2-2-2-2--2-2-2-2-2-2-2-2-|
|-5-5-5-5-5-5-5-5--5-5-5-5-5-5-5-5--3-3-3-3-3-3-3-3--3-3-3-3-3-3-3-3-|
|-5-5-5-5-5-5-5-5--5-5-5-5-5-5-5-5--3-3-3-3-3-3-3-3--3-3-3-3-3-3-3-3-|

Verse 2 (the same as Verse 1)

 Lei non c' mai     ma dorme con me
 porta via           ogni colpa

|-0-0-0-0-0-0-0-0--0-0-0-0-0-0-0-0--0-0-0-0-0-0-0-0--0-0-0-0-0-0-0-0-|
|-0-0-0-0-0-0-0-0--0-0-0-0-0-0-0-0--0-0-0-0-0-0-0-0--0-0-0-0-0-0-0-0-|
|-0-0-0-0-0-0-0-0--0-0-0-0-0-0-0-0--0-0-0-0-0-0-0-0--0-0-0-0-0-0-0-0-| X3
|-4-4-4-4-4-4-4-4--4-4-4-4-4-4-4-4--2-2-2-2-2-2-2-2--2-2-2-2-2-2-2-2-|
|-5-5-5-5-5-5-5-5--5-5-5-5-5-5-5-5--3-3-3-3-3-3-3-3--3-3-3-3-3-3-3-3-|
|-5-5-5-5-5-5-5-5--5-5-5-5-5-5-5-5--3-3-3-3-3-3-3-3--3-3-3-3-3-3-3-3-|

Verse 3 (the same as Verse 1)

 C' un demone     conversa con me
 sfreccia su,      fra le nuvole
Tap to rate this tab
# A B C D E F G H I J K L M N O P Q R S T U V W X Y Z