Song name
# A B C D E F G H I J K L M N O P Q R S T U V W X Y Z

Verdena - Razzi Arpia Inferno E Fiamme tab

--------3----5p3----]      
--------------------]
-----------0-----0--] X8
--------------------]
--------------------]
--------3----3------]



--------1----1----11----11----3----5p3----3----5p3----]
------------------------------------------------------]
----------0----0-----0-----0----0------0----0------0--]
------------------------------------------------------]
------------------------------------------------------]
--------1----1----11----11----3----3------3----3------]



--------1----1----11----11----3----5p3----3----5p3----]
------------------------------------------------------]
----------0----0-----0-----0----0------0----0------0--]
------------------------------------------------------]
------------------------------------------------------]
--------1----1----11----11----3----3------3----3------]



--------3----5p3----3----3----]
------------------------------]
----------0------0----0----0--]
------------------------------]
------------------------------]
--------3----3------3----3----]



----6----6----6----6----5----5----5----5----]
--------------------------------------------]
------0----0----0----0----0----0----0----0--]
--------------------------------------------]
--------------------------------------------]
----6----6----6----6----5----5----5----5----]



----6----6----6----6----5----5----5----5----]
--------------------------------------------]
------0----0----0----0----0----0----0----0--]
--------------------------------------------]
--------------------------------------------]
----6----6----6----6----5----5----5----5----]



----8----8----8----8----3----3----3----3----]
--------------------------------------------]
------0----0----0----0----0----0----0----0--]
--------------------------------------------]
--------------------------------------------]
----8----8----8----8----3----3----3----3----]



----11----11----11----11----10----10----10----10----]
----------------------------------------------------]
-------0-----0-----0-----0-----0-----0-----0-----0--]
----------------------------------------------------]
----------------------------------------------------]
----11----11----11----11----10----10----10----10----]



----3----5p3----3----5p3----3----5p3----3----3----]
--------------------------------------------------]
------0------0----0------0----0------0----0----0--]
--------------------------------------------------]
--------------------------------------------------]
----3----3------3----3------3----3------3----3----]



----6----6----6----6----5----5----5----5----]
--------------------------------------------]
------0----0----0----0----0----0----0----0--]
--------------------------------------------]
--------------------------------------------]
----6----6----6----6----5----5----5----5----]



----6----6----6----6----5----5----5----5----]
--------------------------------------------]
------0----0----0----0----0----0----0----0--]
--------------------------------------------]
--------------------------------------------]
----6----6----6----6----5----5----5----5----]



----8----8----8----8----3----3----3----3----]
--------------------------------------------]
------0----0----0----0----0----0----0----0--]
--------------------------------------------]
--------------------------------------------]
----8----8----8----8----3----3----3----3----]



----11----11----11----11----10----10----10----10----]
----------------------------------------------------]
-------0-----0-----0-----0-----0-----0-----0-----0--]
----------------------------------------------------]
----------------------------------------------------]
----11----11----11----11----10----10----10----10----]



----8----8----8----8----3----3----3----3----]
--------------------------------------------]
------0----0----0----0----0----0----0----0--]
--------------------------------------------]
--------------------------------------------]
----8----8----8----8----3----3----3----3----]



----11----11----11----11----10----10----10----10----]
----------------------------------------------------]
-------0-----0-----0-----0-----0-----0-----0-----0--]
----------------------------------------------------]
----------------------------------------------------]
----11----11----11----11----10----10----10----10----]



----3----5p3----3----5p3----3----5p3----5p3----3----]
----------------------------------------------------]
------0------0----0------0----0------0------0----0--]
----------------------------------------------------]
----------------------------------------------------]
----3----3------3----3------3----3------3------3----]



----6----6----5----5----8----8----3----3----11----11----10----10----]
--------------------------------------------------------------------]
------0----0----0----0----0----0----0----0-----0-----0-----0-----0--]
--------------------------------------------------------------------]
--------------------------------------------------------------------]
----6----6----5----5----8----8----3----3----11----11----10----10----]



----8----8----8----8----]
------------------------]
------0----0----0----0--]
------------------------]
------------------------]
----8----8----8----8----]



----6----6----5----5----8----8----3----3----11----11----10----10----]
--------------------------------------------------------------------]
------0----0----0----0----0----0----0----0-----0-----0-----0-----0--]
--------------------------------------------------------------------]
--------------------------------------------------------------------]
----6----6----5----5----8----8----3----3----11----11----10----10----]



----8----8----8----8----]
------------------------]
------0----0----0----0--]
------------------------]
------------------------]
----8----8----8----8----]



----6----6----6----6----3----3----3----3----]
--------------------------------------------]
------0----0----0----0----0----0----0----0--]
--------------------------------------------]
--------------------------------------------]
----6----6----6----6----3----3----3----3----]



----5----5----5----5----3----3----3----3----]
--------------------------------------------]
------0----0----0----0----0----0----0----0--]
--------------------------------------------]
--------------------------------------------]
----5----5----5----5----3----3----3----3----]



----6----6----6----6----3----3----3----3----]
--------------------------------------------]
------0----0----0----0----0----0----0----0--]
--------------------------------------------]
--------------------------------------------]
----6----6----6----6----3----3----3----3----]



----5----5----5----5----3----3----3----3----]
--------------------------------------------]
------0----0----0----0----0----0----0----0--]
--------------------------------------------]
--------------------------------------------]
----5----5----5----5----3----3----3----3----]



--------------------------------------------]
----6----6----6----6----5----5----5----5----]
--------------------------------------------]
--------------------------------------------]
------5----5----5----5----4----4----4----4--]
--------------------------------------------]



-------------------------3----3----3----3----]
----4----4----4----4-------------------------]
---------------------------0----0----0----0--]
---------------------------------------------]
------3----3----3----3-----------------------]
-------------------------3----3----3----3----]



--------------------------------------------]
----6----6----6----6----5----5----5----5----]
--------------------------------------------]
--------------------------------------------]
------5----5----5----5----4----4----4----4--]
--------------------------------------------]



-------------------------3----3----3----3----]
----4----4----4----4-------------------------]
---------------------------0----0----0----0--]
---------------------------------------------]
------3----3----3----3-----------------------]
-------------------------3----3----3----3----]



--------------------------------------------]
----6----6----6----6----5----5----5----5----]
--------------------------------------------]
--------------------------------------------]
------5----5----5----5----4----4----4----4--]
--------------------------------------------]



----3----5p3----3----5p3----3----5p3----3----5p3----]
----------------------------------------------------]
------0------0----0------0----0------0----0------0--]
----------------------------------------------------]
----------------------------------------------------]
----3----3------3----3------3----3------3----3------]



--------1----1----11----11----3----5p3----3----5p3----]
------------------------------------------------------]
----------0----0-----0-----0----0------0----0------0--]
------------------------------------------------------]
------------------------------------------------------]
--------1----1----11----11----3----3------3----3------]



--------1----1----11----11----3----5p3----3----5p3----]
------------------------------------------------------]
----------0----0-----0-----0----0------0----0------0--]
------------------------------------------------------]
------------------------------------------------------]
--------1----1----11----11----3----3------3----3------]



--------1----1----11----11----3----5p3----3----5p3----]
------------------------------------------------------]
----------0----0-----0-----0----0------0----0------0--]
------------------------------------------------------]
------------------------------------------------------]
--------1----1----11----11----3----3------3----3------]



--------1----1----11----11----]
------------------------------]
----------0----0-----0--------]
------------------------------]
------------------------------]
--------1----1----11----11----]
Tap to rate this tab
 
# A B C D E F G H I J K L M N O P Q R S T U V W X Y Z