Song name
# A B C D E F G H I J K L M N O P Q R S T U V W X Y Z

Verdena - Fiato Adolescenziale tab

Fiato adolescenziale - Verdena


INTRO , VERSE:
E-|---------------------------|
B-|-6-------------------------|
D-|-6---6---7---6-------------|
A-|-4---6---7---6-------------|
E-|-----4---5---4-------------|
   
PRE CHORUS:
E-|-----------------------------|
B-|-----------------------------|
G-|-----------------------------|
D-|--4---6---7---6--------------|
A-|--4---6---7---6--------------|
E-|--2---4---5---4--------------|
  

E-|--------------------------|
B-|--------------------------|
G-|--6---7-------------------|
D-|--6---7-------------------|
A-|--4---5-------------------|
E-|--------------------------| 
      

CHORUS
E-|----------------------------|
B-|----------------------------|
G-|--6-------------------------|
D-|--6---6---7---6---4---6---7-|
A-|--4---6---7---6---4---6---7-|
E-|------4---5---4---2---4---5-|  
    

E-|----------------------------------|
B-|----------------------------------|
G-|----------------------------------|
D-|--6---7---6---4-------------------|
A-|--6---7---6---4-------------------|
E-|--4---5---4---2-------------------|


Tap to rate this tab
 
# A B C D E F G H I J K L M N O P Q R S T U V W X Y Z