Song name
# A B C D E F G H I J K L M N O P Q R S T U V W X Y Z

Verdena - 03 Non Prendere Lacme Eugenio tab

by Nannarč

intro
 -----10-----8---8------10-----9----9--|
 ---8------6---6-----10------10--10----|
 -12----10---------12------11----------|
 --------------------------------------|
 --------------------------------------|
D--------------------------------------|

verso
 ------|
 ------|
 ------|
 -5-0--|
 -5-0--|
D-5-0--|

ritornello
 -----------|    -----|
 -----------|    -----|
 --------9+-|    -----|
 -9-12-9-9+-|X 4 -8-7-|
 -9-12-9-7+-|    -8-7-|
D-9-12-9----|    -8-7-|

bridge
 --------|
 --------|
 --------|
 -2--4---|
 -2--4---|
D-2--4---|
...non merito....

solo
 ---------------------------------------------|   --------------------------|
 -10-9-10--9-10-9--7-9-7--5-7-5--3-5-3--2-3-2-|   -10-9-10--9-10/12--10-12--|
 ---------------------------------------------|X2 --------------------------|
 ---------------------------------------------|   --------------------------|
 ---------------------------------------------|   --------------------------|
D---------------------------------------------|   --------------------------|

 -------------------------------------------------------------|
 -12/14-14/7-7/10--10-9-10--9-10-9--7-9-7--5-7-5--3-5-3--5/10-|
 -------------------------------------------------------------|
 -------------------------------------------------------------|
 -------------------------------------------------------------|
D-------------------------------------------------------------|

bridge 2 (4:00 circa)
 ---------|
 ---------|
 ---9-----|
 -8-9-7-0-|
 -8-7-7-0-|
D-8---7-0-|
testa godzilla, sulle sue ciglia... NON PRENDERE L'ACME!!!
Tap to rate this tab
 
# A B C D E F G H I J K L M N O P Q R S T U V W X Y Z