Song name
# A B C D E F G H I J K L M N O P Q R S T U V W X Y Z

Verdena - Non Prendere Lacme Eugenio tab

Help us improve GuitareTab! Take a short survey!
Artist: Verdena
Song: Non prendere l'acme Eugenio
Reel: Requiem
Tuning: standard with drop D

I've recently found this tab on this site but it wasn't so much correct. I'll try to tab 
alternative version, which I think could be better.
Ok, let's go.

Intro:
e------10----8----8----8--------10-----10-----10-----10--------------]
B----10-----------------------10-----7-----7-----7-------------------]
G--12-----10---10---10------12---------------------------------------]
D--------------------------------------------------------------------]
A--------------------------------------------------------------------]
D--------------------------------------------------------------------]

Verse 1
e--13-12-10-----------13-12-10---10---13-12-10-----------------------]
B------------13-13b------------7----------------13-13b--10-10--------]
G--------------------------------------------------------------------]
D--------------------------------------------------------------------]
A--------------------------------------------------------------------]
D--------------------------------------------------------------------]

e--13-12-10----10-10b------------------------------------------------]
B------------7-------------------------------------------------------]
G--------------------------------------------------------------------]
D--------------------------------------------------------------------]
A--------------------------------------------------------------------]
D--------------------------------------------------------------------]

Verse 2
e--------------------------------------------------------------------]
B--------------------------------------------------------------------]
G--------------------------------------------------------------------]
D--5-5-5--0----------------------------------------------------------]
A--5-5-5--0----0----0------------------------------------------------]
D--5-5-5--0--0----0--------------------------------------------------]
"In collera ho un grido quanto  inutile...

Chorus (part one)           Chorus (part two)
e--------------------------I-----------------------------------------]
B--------------------------I-----------------------------------------]
G--------------------------I-----------------------------------------]
D--9--9--12--9-9---9^------I--8-8-8-8--7-7-7-7-----------------------]
A--9--9--12--9-9---7^------I--8-8-8-8--7-7-7-7-----------------------]
D--9--9--12--9-9-----------I--8-8-8-8--7-7-7-7-----------------------]
"Il buio  qui..."         only when Alberto sings "Impazzir in un attimo"
"Non vedremo mai..."       and "Impazzir..."
"Un volo nel pus..."
"Non berremo mai..."

Chorus (part three when Alberto sings "Lo merito...")
e--------------------------------------------------------------------]
B--------------------------------------------------------------------]
G--------------------------------------------------------------------]
D--4---------------2-------------------------------------------------]
A--4----4-4h5------2----2-2------------------------------------------]
D--4--4--4---------2--2--2-------------------------------------------]

Solo (not so much difficult...)
e------------------------------------------------------------------------]
B-10h9p10-10----9h10p9-9----7h9p7-7----5h7p5-5----3h5p3----2h3p2---------]
G------------------------------------------------------------------------]
D------------------------------------------------------------------------]
A------------------------------------------------------------------------]
D------------------------------------------------------------------------]

e------------------------------------------------------------------------]
B-10h9p10-10----9h10p9-9----7h9p7-7----5h7p5-5----3h5p3----2h3p2---------]
G------------------------------------------------------------------------]
D------------------------------------------------------------------------]
A------------------------------------------------------------------------]
D------------------------------------------------------------------------]

e------------------------------------------------------------------------]
B-10h9p10-10----10\12-12----12\14-14----14\7-7----10h9p10-10----9h10p9-9-]
G------------------------------------------------------------------------]
D------------------------------------------------------------------------]
A------------------------------------------------------------------------]
D------------------------------------------------------------------------]

e------------------------------------------------------------------------]
B-7h9p7-7----5h7p5-5----3h5p3----2h3p2-----------------------------------]
G------------------------------------------------------------------------]
D------------------------------------------------------------------------]
A------------------------------------------------------------------------]
D------------------------------------------------------------------------]

Chorus 1
e------------------------------------------------------------------------]
B------------------------------------------------------------------------]
G------------------------------------------------------------------------]
D--9-9-12-9--9^----------------------------------------------------------]
A--9-9-12-9--7^----------------------------------------------------------]
D--9-9-12-9--------------------------------------------------------------]
"un volo nel pus..."

Interlude
e------------------------------------------------------------------------]
B------------------------------------------------------------------------]
G------------------------------------------------------------------------]
D---5--------7--------8--------10---------11--------12--------13---------]
A---5-(x12)--7-(x12)--8-(x12)--10--(x12)--11--(x4)--12--(x4)--13---------]
D---5--------7--------8--------10---------11--------12--------13---------]

Outro
e------------------------------------------------------------------------]
B------------------------------------------------------------------------]
G------------------------------------------------------------------------]
D---8-8-8--9-9-9--7--0---------------------------------------------------]
A---8-8-8--7-7-7--7--0---------------------------------------------------]
D---8-8-8---------7--0---------------------------------------------------]

There are the text and the order of the song:

1)Intro

2)Verse 1

3)Verse 2
 In collera ho un grido, quanto  inutile
 perdo energie e non so perch
 la spinta mi slancia tutto  comodo
 diglielo a Dio se sai che c'

4)Verse 1

5)Verse 2
 Conoscono un posto e l io mi guarir
 scompariranno i tempi bui
 non vincer pi il mondo  domino
 diglielo a Dio se sai che c'

6)Chorus (part one)
 Il buio  qui, il buio  qui
 non vedremo mai, vedremo mai

7)Chorus (part two)
 Impazzir in un attimo

8)Chorus (part one)
 Un volo nel pus, un volo nel pus
 non berremo mai, berremo mai

9)Chorus (part two)
 Impazzir

10)Chorus (part three)
 Lo merito..

11)Solo

12)Chorus (part one)
 Un volo nel pus

13)Verse 1

14)Verse 2
 In collera ho un grido quanto  inutile
 perdo energie e non so perch
 la spinta mi slancia tutto  comodo
 diglielo a Dio se sai che c'

15)Interlude

16)Chorus (part one)
 Il buio  qui, il buio  qu
 non vedremo mai, vedremo mai

17)Chorus (part two)
 Impazzir in un attimo

18) Chorus (part two)
 Un volo, un volo, un volo nel pus

19) Outro
 In testa a Godzilla, fra le sue ciglia, NON PRENDERE L'ACME
 se sei un hare krishna, mi meraviglierai, NON PRENDERE L'ACME

That's all. Have a great fun!!!!!!!
Related for Non Prendere Lacme Eugenio tab