Song name
# A B C D E F G H I J K L M N O P Q R S T U V W X Y Z

Verigo - Dull tab

intro

-------------------------------------------------------------
-------------------------------------------------------------
-------------------------------------------------------------
----1-1---2-2---1-1------------1-1---2-2---1-1---------------
-2-2---2-2---2-2---2-2-1-1--2-2---2-2---2-2---2-2-1-1--------
-------------------------------------------------------------

play 2 times and at the end of the 2nd time play this A2



riff #1



-------------------------------------------------------------
-------------------------------------------------------------
-------------------------------------------------------------
-------------------------------------------------------------
-------------------------------------------------------------
-0-0-0-0-5-5-5-5-2-2-2-2-7-7-7-7-----------------------------

play 4 times

-------------------------------------------------------------
-------------------------------------------------------------
-------------------------------------------------------------
-------------------------------------------------------------
--------4-4-4-----------4-4-4-----------4-4-4----------------
-0-0-4-4-----5-5-0-0-4-4-----5-5-0-0-4-4------5-5-0-0-4-4-0--

chorus



-------------------------------------------------------------
-------------------------------------------------------------
-------------------------5-5-9-9-----------------------------
-------------------------3-3-7-7-----------------------------
-0-0-7-7-5-5-9-9-0-0-7-7-------------------------------------
-0-0-5-5-3-3-7-7-0-0-5-5-------------------------------------

play 4 times


riff #2 is a reapeat of riff#1 then play chorus


outro


-------------------------------------------------------------
-------------------------------------------------------------
-------------------------------------------------------------
-------------------------------------------------------------
--------4-4-4-----------4-4-4-----------4-4-4----------------
-0-0-4-4-----5-5-0-0-4-4-----5-5-0-0-4-4-----5-5-0-0-4-4-0---
Tap to rate this tab
# A B C D E F G H I J K L M N O P Q R S T U V W X Y Z