Guitaretab - guitar tabs
Song name
# A B C D E F G H I J K L M N O P Q R S T U V W X Y Z

Verjnuarmu - Kuu Paestaa Kuollu Ajjaa tab

Verjnuarmu - Kuu paestaa, kuollu ajjaa

Surmakitara : C G C F A D - Murhakitara - C G C F A D

X = Demppaa

- Tablat selvitti oikea nimimerkki : Tölkki, 26.12.08 Klo 00:00 - 00:30

Intro
------------------------------------------------------------------|
------------------------------------------------------------------|
------------------------------------------------------------------|
----------------------------------------------------666666-777777-|
--------1-0--------------1-0--------------1-0-------666666-777777-|
-000000-1-0-4-4-3-000000-1-0-7-7-6-000000-1-0-4-4-3-666666-777777-|
 XXXXXX           XXXXXX           XXXXXX

ootaa tyttö tienposkessa.
-------------------------------------|
-------------------------------------|
-------------------------------------|
-------------------------------------|
-1111-111-0000-000-1111-111-3333-333-|
-1111-111-0000-000-1111-111-3333-333-|
 XXXX XXX XXXX XXX XXXX XXX XXXX XXX
[ Tab from: http://www.guitaretab.com/v/verjnuarmu/175060.html ]
Kuu paestaa helleesti
--------------------------|
--------------------------|
--------------------------|
--------------------------|
-1--1-1-0-0-0-5--55-3-3-3-|
-1--1-1-0-0-0-5--55-3-3-3-|

Kertosäe (Soinnut)
----------------|
----------------|
----------------|
-6---5---10---8-|
-6---5---10---8-|
-6---5---10---8-|
 F#  F   A#   G#

Välisoitto
-------------------------------------------------------------------------|
-------------------------------------------------------------------------|
----------------------8--------------------------------------------------|
---------------0-0-0--x--7-----------------------------------------------|
---------------0-0-0--6--5---------0-0-0------0-0-0-0--------------------|
-7-4-0--6-4-0--0-0-0--0--0--4-1-0--0-0-0--4-1-0-0-0-0--4-1-0-4-1-0-4-1-0-|
               X X X               X X X      X X X X

----------|
----------|
----------|
----------|
-0--0-0-0-|
-0--0-0-0-|
 X  X X X
Related for Kuu Paestaa Kuollu Ajjaa tab
×
Kuu Paestaa Kuollu Ajjaa