Song name
# A B C D E F G H I J K L M N O P Q R S T U V W X Y Z

Veronica Maggio - Jag Lovar tab

Veronica Maggio's Song Jag lovar, from the album: Handen i fickan fast jag bryr mig.

Tabbed by Thomas Aspholm November 2013
email: Thomas.aspholm@gmail.com
Based on Veronica Maggio - Jag lovar, on spotify.

Standard Tuning.

Check the rythm it's pretty difficult. 




Intro, or the part that would be played on a synth:

      Am       G     C                     x2     Dm      F
e|-X--0-0-0-x--3--x--0-x--3-x-3--3--1--0--0----|--1-------1----------------------|
B|-X--1-1-1-x--3--x--1-x--1-x-1--1--1--1--3----|--3-------1----------------------|
G|-X--2-2-2-x--0--x--0-x--0-x-0--0--0--0--0----|--2-------2----------------------|
D|-X--2-2-2-x--0--x--2-x--2-x-2--2--2--2--2----|--0-------3----------------------|
A|-X--0-0-0-x--2--x--3-x--3-x-3--3--3--3--3----|--0-------3----------------------|
E|-X--0-0-0-x--3--x--0-x--0-x-0--0--0--0--0----|--0-------0----------------------|

This is played 2 times, so: Am-G-C x2, Dm-F, Am-G-C x2, Dm-F.


Am         G              C
Det gungar fastän vi står stilla
Am         G              C           Dm         F
Står kvar i hamnen och mår illa       Aaaaaaa    aaaaaa-aa
Am         G        C
Spelautomaterna har slocknat
Am         G        C                 Dm         F
Dom städar hytterna och dammtorkar    Aaaaaaa    aaaaaa-aa

    C        G            F
Jag har ingenstans att va
    C        G            Am
Flyttar närmare som svar,
       F              D
när du frågar "ska vi dra?"

Am          G        C 
Jag vaknade alldeles själv (jag lovar)
Am          G         C
Minns inget från igår kväll (jag lovar)
Dm                      F
Det var väl kanske lika bra,
Dm                        F
du hade säkert ångrat dig idag


(Am-G-C x1)

e|-X--0-0-0-x--3--x--0-x--3-x-3--3--1--0--0----|
B|-X--1-1-1-x--3--x--1-x--1-x-1--1--1--1--3----|
G|-X--2-2-2-x--0--x--0-x--0-x-0--0--0--0--0----|
D|-X--2-2-2-x--0--x--2-x--2-x-2--2--2--2--2----|
A|-X--0-0-0-x--2--x--3-x--3-x-3--3--3--3--3----|
E|-X--0-0-0-x--3--x--0-x--0-x-0--0--0--0--0----|

Am      G              C
Vi äter lakrits och är stumma
Am      G              C            Dm      F
Det börjar svida på min tunga       Aaaaaa  aaaa-aa
Am       G              C
Handen i fickan fast jag bryr mig
Am        G              C             Dm      F
Vad du än frågar ska jag svara "nej"   Aaaaaa  aaaa-aa


    C        G         F
Jag har ingenstans och va,
    C        G         Am
Flyttar närmare som svar,
       F               D
när du frågar "ska vi dra?"


 Am           G       C
Jag vaknade alldeles själv (jag lovar)
 Am         G           C
Minns inget från igår kväll (jag lovar)
 Dm                      F
Det var väl kanske lika bra,
 Dm                      F
du hade säkert ångrat dig idag

 Am            G        C
Jag vaknade alldeles själv (jag lovar)
 Am            G        C
Ingenting hände igår kväll (jag lovar)
 Dm                      F
Det var väl kanske lika bra,
 Dm                      F
du hade säkert ångrat dig idag


Am        G                 F                     F-G (bassline)
Jag vill hellre va bortgjord än och va ensam
Am     G             F
Orkar inte va iskall, vill bara känna
     G                   F
Det var väl kanske lika bra,
         G                  F     G
du hade säkert ångrat dig idag


(Am-G-C x1)

e|-X--0-0-0-x--3--x--0-x--3-x-3--3--1--0--0----|
B|-X--1-1-1-x--3--x--1-x--1-x-1--1--1--1--3----|
G|-X--2-2-2-x--0--x--0-x--0-x-0--0--0--0--0----|
D|-X--2-2-2-x--0--x--2-x--2-x-2--2--2--2--2----|
A|-X--0-0-0-x--2--x--3-x--3-x-3--3--3--3--3----|
E|-X--0-0-0-x--3--x--0-x--0-x-0--0--0--0--0----|



 Am           G       C
Jag vaknade alldeles själv (jag lovar)
 Am         G           C
Minns inget från igår kväll (jag lovar)
 Dm                      F
Det var väl kanske lika bra,
 Dm                      F
du hade säkert ångrat dig idag

 Am            G        C
Jag vaknade alldeles själv (jag lovar)
 Am            G        C
Ingenting hände igår kväll (jag lovar)
 Dm                      F
Det var väl kanske lika bra,
 Dm                      F
du hade säkert ångrat dig idag


Dm                      F
Det var väl kanske lika bra
Tap to rate this tab
# A B C D E F G H I J K L M N O P Q R S T U V W X Y Z