Guitaretab - guitar tabs
Song name
# A B C D E F G H I J K L M N O P Q R S T U V W X Y Z
Home / V / Verra Cruz / One tab

Verra Cruz - One tab

-------------------------------------------------------------------------------
                             One - Verra Cruz
-------------------------------------------------------------------------------

Tuning: Drop D (D A D G B E)

I'm not going to tab out all the strumming patterns, as it is easy enough to figure it 
out by listening to the song.


Intro

e|------------------------------------------------|
B|------------------------------------------------|
G|------------------------------------------------|
D|-2--5--12--0--7--0--10-\-2--5--12--0--7--0--10--|    x2
A|-2--5--12--0--7--0--10-\-2--5--12--0--7--0--10--|
E|-2--5--12--0--7--0--10-\-2--5--12--0--7--0--10--|

[ Tab from: http://www.guitaretab.com/v/verra-cruz/314689.html ]
Verse
(Roughly the same as the intro riff, however just let each chord ring)
e|--------------------------------------------------------------|
B|--------------------------------------------------------------|
G|--------------------------------------------------------------|
D|-2--12--7--10----2--12--7--10----2--12--7--10----2--12--7--5--|
A|-2--12--7--10----2--12--7--10----2--12--7--10----2--12--7--5--|
E|-2--12--7--10----2--12--7--10----2--12--7--10----2--12--7--5--|


Pre-Chorus

e|-------------|
B|-------------|
G|-------------|
D|--10--12--5--|     x4
A|--10--12--5--|
E|--10--12--5--|


Chorus

e|------------------------------------------------|
B|------------------------------------------------|
G|------------------------------------------------|
D|-2--5--12--0--7--0--10-\-2--5--12--0--7--0--10--|    x2
A|-2--5--12--0--7--0--10-\-2--5--12--0--7--0--10--|
E|-2--5--12--0--7--0--10-\-2--5--12--0--7--0--10--|


Bridge
(Tremolo pick each note)
e|------------------------------------------------|
B|--13--15--13--12--10--13--15--13--12--10--------|
G|------------------------------------------------|
D|------------------------------------------------|
A|------------------------------------------------|
E|------------------------------------------------|


************************************

| /   slide up
| \   slide down
| h   hammer-on
| p   pull-off
| ~   vibrato
| +   harmonic
| x   Mute note
| b   Bend
| pb  Pre-bend
| br  Bend release
| pbr Pre-bend release
| brb Bend release bend

************************************
Related for One tab
One chords by Verra Cruz