Guitaretab - guitar tabs
Song name
# A B C D E F G H I J K L M N O P Q R S T U V W X Y Z

Versaemerge - The Authors Acoustic tab

Alice this one is for you.
somehow you are the only one that understand me.
Gracias.

peace*


Intro

e|--5---3-7-/8--8---|--8--8---|
B|--5---3-7-/8--8---|--8--8---|
G|--7---5-10/10-9---|--9--9---|
D|--x---x-10/10-10--|--10-10--|
A|--5---7-7-/8--8---|--8--8---|
D|--x---x-7-/8--8---|--8--8---|

e|--5~-------3--3--------7-/-8--8----------5--|
B|--0~-------3--3--------7-/-8--8----------6--|
G|--4~-0--3--5--5--5--7--10/-10-9----3--5--7--|
D|--0~-0--3--3--5--5--7--10/-10-10-0-3--5--7--|
A|--0~-0--3--3--5--5--7--7-/-8--8--0-3--5--5--|
D|-----0--3--3--5--5--7--7-/-8--8--0-3--5--5--|


Verse 1

e|--x-8~~-------8---------8---|
B|--x-8~~-------8---------8---|
G|--x-10~-3-x-3/10--3-x-3/10--|  Play with it!
D|--x-10~-3-x-3/10--3-x-3/10--|
A|--x-8~~-3-x-3/8---3-x-3/8---|
D|--x-8~~-3-x-3/8---3-x-3/8---|


Pre-chorus

e|-----|       |--------|   |--x----8--|
B|-----|       |--------|   |--5----8--|
G|-----|  Palm |--3--5--|   |--5----0--|
D|--0--|       |--3--5--|   |--3----0--|
A|--0--|       |--1--3--|   |--x----x--|
D|--0--|       |--------|   |--x----x--|


Chorus

e|--5--------3--------7-/8--8-----------5--|
B|--0--------3--------7-/8--8-----------6--|
G|--4--0--3--5--5--7--10/10-9-----3--5--7--|
D|--0--0--3--3--5--7--10/10-10-0--3--5--7--|
A|--0--0--3--3--5--7--7-/8--8--0--3--5--5--|
D|--0-0--3--3--5--7--7-/8--8--0--3--5--5--|
[ Tab from: http://www.guitaretab.com/v/versaemerge/178895.html ]
e|--5--x--5--x----8--x--8--x---5--x--|
B|--6--x--6--x----8--x--8--x---5--x--|
G|--7--x--7--x--3/9--x--9--x-5-6--x--|
D|--7--x--7--x--3/10-x--10-x-5-7--x--|
A|--5--x--5--x--3/8--x--8--x-5-5--x--|
D|--5--x--5--x--3/8--x--8--x-5-5--x--|


Verse 2

e|--8~~----------8--x--10--8--8--8--|--8----10--|
B|--8~~------10--8--x--10--8--8--8--|--8----10--|
G|--10~-9h10-----9--x--11--9--10-10-|--10---11--|
D|--10~----------10-x--12--10-10-10-|--10---12--|
A|--8~~----------8--x--10--8--8--8--|--8----10--|
D|--8~~----------8--x--10--8--8--0--|--8----10--|


Repeat pre-chorus and chorus


I hope, Im not the only one (Bridge)

e|------12--13-----8--10--|
B|------12--10-----8--10--|
G|--12--x---10--9--8--11--|
D|--12--x---10--10-9--12--|
A|--12--11--10--9--10-10--|
D|--12--11--10--9--8--10--|


Chorus (but take it from here)

e|--------7-/8--8-----------5--|
B|--------7-/8--8-----------6--|
G|--5--7--10/10-9-----3--5--7--|
D|--5--7--10/10-10-0--3--5--7--|
A|--5--7--7-/8--8--0--3--5--5--|
D|--5--7--7-/8--8--0--3--5--5--|

e|--5--x--5--x----8--x--8--x---5--x--|
B|--6--x--6--x----8--x--8--x---5--x--|
G|--7--x--7--x--3/9--x--9--x-5-6--x--|
D|--7--x--7--x--3/10-x--10-x-5-7--x--|
A|--5--x--5--x--3/8--x--8--x-5-5--x--|
D|--5--x--5--x--3/8--x--8--x-5-5--x--|


Outro

e|--5---6------|
B|--6---5---0--|
G|--7---7---0--|
D|--7---7---0--|
A|--5---5---0--|
D|--5---5---0--|

Related for The Authors Acoustic tab