Song name
# A B C D E F G H I J K L M N O P Q R S T U V W X Y Z

Versaemerge - Consider The Sea tab

-----------------------------------------------------------------
SONG NAME Consider the sea intro - Band Name VersaEmerge
-----------------------------------------------------------------
Tabbed by: Laurab123
Email:

Tuning: Standard EADGBE


e|------------7----------10------------------|
B|-----7h8-------8p7h8---------7h8-----------|
G|---------9-----------9----9------9p7-------|
D|-------------------------------------9p7---|   X3
A|-------------------------------------------|
E|-------------------------------------------|

e|---------7---------10------12p11-----------------------------------------|
B|---7h8-----8p7h8-------7h8-------12--------------------------------------|
G|-------9---------9---9--------------12-9-11-9-11h12p11---------9h11-11-11|
D|-------------------------------------------------------12-9-12-----------|
A|-------------------------------------------------------------------------|
E|-------------------------------------------------------------------------|
| /  slide up
| \  slide down
| h  hammer-on
| p  pull-off
| ~  vibrato
| +  harmonic
| x  Mute note
Tap to rate this tab
 
# A B C D E F G H I J K L M N O P Q R S T U V W X Y Z