Song name
# A B C D E F G H I J K L M N O P Q R S T U V W X Y Z

Versaemerge - The Hider tab

Help us improve GuitareTab! Take a short survey!
e|-12----12----12----12----15----15----15----15----|
B|----12----12----12----12----12----12----12----12-|
G|-------------------------------------------------|
D|-------------------------------------------------|
A|-------------------------------------------------|
E|-------------------------------------------------|

e|-14----14----14----14----11----11----11----11----|
B|----12----12----12----12----12----12----12----12-|
G|-------------------------------------------------|
D|-------------------------------------------------|
A|-------------------------------------------------|
E|-------------------------------------------------|

Repeat this for the first verse.
Related for The Hider tab