Song name
# A B C D E F G H I J K L M N O P Q R S T U V W X Y Z

Versaemerge - The Hider Acoustic tab

"The Hider" by VersaEmerge (Acoustic) - Play in DROP D
Tabbed By Jonathan F. Aug. 8, 2009
Most of this is just main chords without the strumming patterns. Listen to the song for
patterns. Tabbed by watching acoustic version video found at
. You can almost never get a tab completely 100% like the song, but this is extremely 
A couple of the chords I guessed on...


E  :7---7---7---7---|8---8---8---8---|7---7---7---7---|----------------|
B  :8---8---8---8---|8---8---8---8---|8---8---8---8---|7---7---7---7---|
G  :--9---9---9---9-|--9---9---9---9-|--8---8---8---8-|8---8---8---8---|
D  :----------------|----------------|----------------|--9---9---9---9-|
A  :----------------|----------------|----------------|----------------|
D  :----------------|----------------|----------------|----------------|


E  :7---7---7---7---|8---8---8---8---|7---7---7---7---|----------------|
B  :8---8---8---8---|8---8---8---8---|8---8---8---8---|7---------------|
G  :--9---9---9---9-|--9---9---9---9-|--8---8---8---8-|8---------------|
D  :----------------|----------------|----------------|9---------------|
A  :----------------|----------------|----------------|----------------|
D  :----------------|----------------|----------------|----------------|


E  :7---------------|8---------------|7---------------|----------------|
B  :8---------------|8---------------|8---------------|7---------------|
G  :9---------------|9---------------|8---------------|8---------------|
D  :----------------|----------------|----------------|9---------------|
A  :----------------|----------------|----------------|----------------|
D  :----------------|----------------|----------------|----------------|


E  :7---------------|8---------------|7---------------|----------------|
B  :8---------------|8---------------|8---------------|7---------------|
G  :9---------------|9---------------|8---------------|8---------------|
D  :----------------|----------------|----------------|9---------------|
A  :----------------|----------------|----------------|----------------|
D  :----------------|----------------|----------------|----------------|

                                     -------------PART  A--------------------|
E  :0---------------|0---------------|0----------0------|0----------0--------|
B  :0---------------|4---------------|0----------0------|0----------0--------|
G  :4---------------|4---(knocks-----|4----------4------|4----------4--------|
D  :2---------------|4-----on--------|5----------2---4-5|5----------2---4-1--|
A  :3---------------|2----Guitar)----|7----------3---4-5|7----------3---4-1--|
D  :x---------------|x---------------|x----4-5-7-x---4-5|x----4-5-7-x---4-1--|
                                      strumming starts


E  :7---------------|-x-------x----0---|x-----------------------|
B  :8---------------|10------12----7---|0-----------------------|
G  :9---------------|11------11----8---|4----4---0-0-0-0-0-0-0--|
D  :9---------------|-9-------9----7---|5----5---5-5-5-5-5-5-5--|
A  :7---------------|-9-------9----7---|3----0---6-6-6-6-6-6-6--|
D  :x---------------|-x-------x----x---|x-----------------------|
    ^------PLAY THIS   FOUR TIMES-------------------------------|


E  :----------------|----------------|7-~-~-~------------|--|
B  :----------------|----------------|8-~-~-~------------|--|
G  :----------------|----------------|9---~-~------------|--|
D  :----------------|----------------|9-~-~-~------------|--|
A  :----------------|----------------|7-~-~-~------------|--|
D  :----------------|----------------|x------------------|--|
   ------REPEAT PART A TWICE--------------------------------|  slide this chord 
some   open muted strumming (listen for pattern)

E  :-x-----x-----x--|x-----x-----x---|x-----x-----x---|0-------x---------|
B  :-7-----7-----8--|7-----7-----8---|7-----7-----8---|5-------8---------|
G  :-x-----x-----7--|x-----x-----7---|x-----x-----7---|5-------8---------|
D  :-5-----5-----5--|5-----5-----5---|5-----5-----5---|5-------8---------|
A  :-7-----0-----6--|7-----0-----6---|7-----0-----6---|3-------6---------|
D  :-x-----x-----x--|x-----x-----x---|x-----x-----x---|x-------x---------|
    ^--------------------PLAY 2 TIMES------------------------------------|

E  :----------------|----------------|----------------|----------------|
B  :----------------|----------------|----------------|----------------|
G  :----------------|----------------|----------------|----------------|
D  :----------------|----------------|------1---------|----------------|
A  :----------------|----------------|------1---------|----------------|
D  :----------------|----------------|------1---------|----------------|
     THEN REPEAT PART A TWICE    AND END ON ^
Tap to rate this tab
 
# A B C D E F G H I J K L M N O P Q R S T U V W X Y Z