Song name
# A B C D E F G H I J K L M N O P Q R S T U V W X Y Z

Versaemerge - Fixed At Zero chords

Intro

e |--7-----7---|
B |--8-----8---|
G |--9-----9---|
D |--9-----10--|
A |--7-----7---|
E |--7-----7---|

Verse

e |--7-----7-----3-----1-----7-----7-----3-----2-----2-----|
B |--8-----8-----3-----1-----8-----8-----3-----2-----4-----|
G |--9-----9-----4-----2-----9-----9-----4-----4-----2-----|
D |--9-----10----5----3-----9-----10----5-----4-----4------|
A |--7-----7-----5-----3-----7-----7-----5------2-----2----|
E |--7-----7-----X-----X-----7-----7-----X------2-----2----|


Chorus

e |--3-----5-----0-----|
B |--3-----5-----3-----|
G |--5-----7-----5-----|
D |--5-----7-----5-----|
A |--3-----5-----X-----|
E |--3-----5------X----|


Solo

e |--7-----0-----2--|
B |--8-----3-----2--|
G |--9-----5-----4--|
D |--9-----5-----4--|
A |--7-----X-----2--|
E |--7-----X-----2--|
Tap to rate this tab
 
# A B C D E F G H I J K L M N O P Q R S T U V W X Y Z