Versaemerge - Fixed At Zero tab

basically this is the lead part plus some rhythm


INTRO

E|-19-17----19-17----19-17----19-17----19-17----20-|
B|-------17-------17-------17-------17-------17----|
G|-------------------------------------------------|
D|-------------------------------------------------|
A|-------------------------------------------------|
D|-------------------------------------------------|

E|-17----20-17----20-17----20-17----20-17----20-17-|
B|----17-------17-------17-------17-------17-------|
G|-------------------------------------------------|
D|-------------------------------------------------|
A|-------------------------------------------------|
D|-------------------------------------------------|

E|----19-17----19-17----19-17----19-17----19-17----|
B|-17-------17-------17-------17-------17-------17-|
G|-------------------------------------------------|
D|-------------------------------------------------|
A|-------------------------------------------------|
D|-------------------------------------------------|

E|-20-17----20-17----20-17----19-17-------19----19-|
B|-------17-------17-------17-------19-17----17----|
G|-------------------------------------------------|
D|-------------------------------------------------|
A|-------------------------------------------------|
D|-------------------------------------------------|


VERSE

This doesn't make much sense. Think far out but I'm still locked...

...in
E|-15~~~~-|-13~~~~-|
B|--------|--------|
G|--------|--------|
D|--------|--------|
A|--------|--------|
D|--------|--------|

I'm still lost, walk in circles. The floor swallowed me up...
Play INTRO PART

...whole. There's nowhere to go.
E|-15~~~~-|-19~~~~-|-19-19-19-19*~~~-|
B|--------|--------|-----------------|
G|--------|--------|-----------------|
D|--------|--------|-----------------|
A|--------|--------|-----------------|
D|--------|--------|-----------------|


CHORUS

E|-----------------|-----------------|-----------------|-----------------| x3
B|-----------------|-----------------|-----------------|-----------------|
G|-5-5-5-5-5-5-5-5-|-7-7-7-7-7-7-7-7-|-----------------|-----------------|
D|-5-5-5-5-5-5-5-5-|-7-7-7-7-7-7-7-7-|-7-7-7-7-7-7-7-7-|-7-7-7-7-7-7-7-7-|
A|-3-3-3-3-3-3-3-3-|-5-5-5-5-5-5-5-5-|-7-7-7-7-7-7-7-7-|-7-7-7-7-7-7-7-7-|
D|-----------------|-----------------|-7-7-7-7-7-7-7-7-|-7-7-7-7-7-7-7-7-|

E|-----------------|-----------------|
B|-----------------|-----------------|
G|-5-5-5-5-5-5-5-5-|-7-7-7-7-7-7-7-7-|
D|-5-5-5-5-5-5-5-5-|-7-7-7-7-7-7-7-7-|
A|-3-3-3-3-3-3-3-3-|-5-5-5-5-5-5-5-5-|
D|-----------------|-----------------|


Repeat VERSE except last part is this:

...ends. There's nowhere to go.
E|-15~~~~-|-19~~~~-19*~~~-|
B|--------|---------------|
G|--------|---------------|
D|--------|---------------|
A|--------|---------------|
D|--------|---------------|


Repeat CHORUS


BRIDGE (you can hear this in the left pan)

E|-------------------------------------|-----------------------------------|
B|---------R-------------R-------------|---------R-------------R-----------|
G|-9-9-9-9-E-12-12-12-12-E-16-16-16-16-\-9-9-9-9-E-12-12-12-12-E-17-\-16-\-|
D|-x-x-x-x-S--x--x--x--x-S--x--x--x--x-|-x-x-x-x-S--x--x--x--x-S--x----x---|
A|-7-7-7-7-T-10-10-10-10-T-14-14-14-14-\-7-7-7-7-T-10-10-10-10-T-15-\-14-\-|
D|-------------------------------------|-----------------------------------|

E|-------------------------------------------------|
B|-------------------------------------------------|
G|-14-14-14-14-14-14-14-14-14-14-14-14-14-14-14-14-|
D|--x--x--x--x--x--x--x--x--x--x--x--x--x--x--x--x-|
A|-12-12-12-12-12-12-12-12-12-12-12-12-12-12-12-12-|
D|-------------------------------------------------|

E|-------------------------------------------------|
B|-------------------------------------------------|
G|-11-11-11-11-11-11-11-11-11-12-12-12-12-12-12-12-\
D|--x--x--x--x--x--x--x--x--x--x--x--x--x--x--x--x-|
A|--9--9--9--9--9--9--9--9--9-10-10-10-10-10-10-10-\
D|-------------------------------------------------|

E|-------------------------------------|-----------------------------------|
B|---------R-------------R-------------|---------R-------------R-----------|
G|-9-9-9-9-E-12-12-12-12-E-16-16-16-16-\-9-9-9-9-E-12-12-12-12-E-17-\-16-\-|
D|-x-x-x-x-S--x--x--x--x-S--x--x--x--x-|-x-x-x-x-S--x--x--x--x-S--x----x---|
A|-7-7-7-7-T-10-10-10-10-T-14-14-14-14-\-7-7-7-7-T-10-10-10-10-T-15-\-14-\-|
D|-------------------------------------|-----------------------------------|

E|-------------------------------------------------|
B|-------------------------------------------------|
G|-14-14-14-14-14-14-14-14-14-14-14-14-14-14-14-14-/
D|--x--x--x--x--x--x--x--x--x--x--x--x--x--x--x--x-|
A|-12-12-12-12-12-12-12-12-12-12-12-12-12-12-12-12-/
D|-------------------------------------------------|

E|-------------------------------------------------|
B|-------------------------------------------------|
G|-16-16-16-16-16-16-16-16-16-16-16-16-16-16-16-16-|
D|--x--x--x--x--x--x--x--x--x--x--x--x--x--x--x--x-|
A|-14-14-14-14-14-14-14-14-14-14-14-14-14-14-14-14-|
D|-------------------------------------------------|

E|-------------------------------------------------|
B|-------------------------------------------------|
G|-20-20-20-20-20-20-20-20-20-20-20-20-20-20-20-20-|
D|--x--x--x--x--x--x--x--x--x--x--x--x--x--x--x--x-|
A|-18-18-18-18-18-18-18-18-18-18-18-18-18-18-18-18-|
D|-------------------------------------------------|

CHORUS

E|-----------|-----------|----------------|
B|-----------|-----------|----------------|
G|-5~~~------|-7~~~------|----------------|
D|-5~~~------|-7~~~------|-7~~~~~~~~------|
A|-3~~~------|-5~~~------|-7~~~~~~~~------|
D|-----------|-----------|-7~~~~~~~~------|

E|-----------------|-----------------|-----------------|-----------------|
B|-----------------|-----------------|-----------------|-----------------|
G|-5-5-5-5-5-5-5-5-|-7-7-7-7-7-7-7-7-|-----------------|---------R-------|
D|-5-5-5-5-5-5-5-5-|-7-7-7-7-7-7-7-7-|-7-7-7-7-7-7-7-7-|-7-7-7-7-E-------|
A|-3-3-3-3-3-3-3-3-|-5-5-5-5-5-5-5-5-|-7-7-7-7-7-7-7-7-|-7-7-7-7-S-------|
D|-----------------|-----------------|-7-7-7-7-7-7-7-7-|-7-7-7-7-T-------|

E|-----------------|-----------------|-----------------|-----------------|
B|-----------------|-----------------|-----------------|-----------------|
G|-5-5-5-5-5-5-5-5-|-7-7-7-7-7-7-7-7-|-----------------|-----------------|
D|-5-5-5-5-5-5-5-5-|-7-7-7-7-7-7-7-7-|-7-7-7-7-7-7-7-7-|-7-7-7-7-7-7-7-7-|
A|-3-3-3-3-3-3-3-3-|-5-5-5-5-5-5-5-5-|-7-7-7-7-7-7-7-7-|-7-7-7-7-7-7-7-7-|
D|-----------------|-----------------|-7-7-7-7-7-7-7-7-|-7-7-7-7-7-7-7-7-|

E|-----------------|-----------------|
B|-----------------|-------------R---|
G|-5-5-5-5-5-5-5-5-|-7-7-7-7-7-7-E---|
D|-5-5-5-5-5-5-5-5-|-7-7-7-7-7-7-S---|
A|-3-3-3-3-3-3-3-3-|-5-5-5-5-5-5-T---|
D|-----------------|-----------------|


OUTRO

Repeat INTRO 2x but the very last is:
E|-20-17----20-17----19--17------19--17--17-|
B|-------17-------17---------17-------------|
G|------------------------------------------|
D|------------------------------------------|
A|------------------------------------------|
D|------------------------------------------|
Tap to rate this tab
 
# A B C D E F G H I J K L M N O P Q R S T U V W X Y Z