Guitaretab - guitar tabs
Song name
# A B C D E F G H I J K L M N O P Q R S T U V W X Y Z

Versaemerge - Youll Never Know tab

=================
You'll Never Know
=================
There's no guitar till the pre-chorus where you strum these chords

e|--------|
B|-4---6--|
G|-5---7--|
D|-6---8--|
A|-6---8--|
D|--------|

Chorus:
the guitar in this is really hard to hear but i think he plays these chords, listen to the song

e|-----------|
B|-----------|
G|-----------|
D|-7---2--0--|
A|-7---2--0--|
D|-7---2--0--| x2

but iiiit woooon't shooww

e|-5----8----3--|
B|-6----10---5--|
G|-7----10---5--|
D|-7----10---5--|
A|-5----8----3--|
D|--------------| x2

For the second verse you just strum these chords

e|-3--0------|
B|-4--1--3---|
G|-5--2--3---|
D|-5--2--5---|
A|-3--0--5---|
D|------(5)--|

then repeat the pre-chorus and the chorus

Bridge:
I WAS SMIILING LIIKE AA LIIIIIIOOOON
e|-3-xx3-xx3-xx3-xx3-xx3-xx3-xx335-xx5-xx5-xx5-xx5-xx5-xx5-xx55--|
B|-5-xx5-xx5-xx5-xx5-xx5-xx5-xx556-xx6-xx6-xx6-xx6-xx6-xx6-xx66--|
G|-4-xx4-xx4-xx4-xx4-xx4-xx4-xx445-xx5-xx5-xx5-xx5-xx5-xx5-xx55--|
D|---------------------------------------------------------------|
A|---------------------------------------------------------------|
D|---------------------------------------------------------------|
[ Tab from: http://www.guitaretab.com/v/versaemerge/233462.html ]
e|-3-xx3-xx3-xx3-xx3-xx3-xx3-xx335-xx5-xx5-xx55-55-57777----|
B|-5-xx5-xx5-xx5-xx5-xx5-xx5-xx556-xx6-xx6-xx66-66-68888----|
G|-4-xx4-xx4-xx4-xx4-xx4-xx4-xx445-xx5-xx5-xx55-55-57777----|
D|----------------------------------------------------------|
A|----------------------------------------------------------|
D|----------------------------------------------------------|

Solo:
Guitar 1:

e|----------------------------------------------------------------------------------|
B|------13------13------12------12-----12------10-----10-----10------12------13-----|
G|-9/10----9/10----9/10----9/10---9/10----9/10---9/10---9/10----9/10----9/10---9/10-|
D|----------------------------------------------------------------------------------|
A|----------------------------------------------------------------------------------|
D|----------------------------------------------------------------------------------|
Twice and the second time you end the solo on the 9th fret of the G string.


Guitar 2:

e|-----------|
B|-----------|
G|-----------|
D|-7---2--0--|
A|-7---2--0--|
D|-7---2--0--|
then
e|-----------|
B|-----------|
G|-----------|
D|-7---5--0--|
A|-7---5--0--|
D|-7---5--0--|


The rest of the song is just the chorus so just repeat it as needed and you end 
with a Cmajor chord
Related for Youll Never Know tab
Youll Never Know chords by Versaemerge