Versaemerge - Moments Between Sleep Acoustic tab

This took me all night, so i hope its good.
It's my first tab, let me know what i could do better.
Watch this video to figure out strumming.
Its the best on Youtube. http://www.youtube.com/watch?v=DexVJwLYi2o&feature=related

Moments Between Sleep  VersaEmerge (Acoustic).
Tuning: Drop D

Intro:
e|-----------|
B|--------6--|
G|--7--10-7--|
D|--7--10-7--|
A|--5--8--5--|
D|--0--8--5--| x2

Verse:
e|---------|
B|---------|
G|--9--9---|
D|--10-10--|
A|--8--8---|
D|--0--8---| x4

Pre-Chorus:
e|--8--8--8--5--|
B|--8--8--8--6--|
G|--10-10-9--7--|
D|--10-10-10-7--|
A|--8--8--8--5--|
D|--8--0--8--5--|

Chorus:
e|--0----------------|
B|--6----------------|
G|--5-----10-5--5----|
D|--7--10-10-3--5----|
A|--0--7--8--3--3----|
D|--0--7--8--3-------| x2

Pre-Verse:
e|-------------|
B|-------------|
G|--7--10-7----|
D|--7--10-7----|
A|--5--8--5----|
D|--0--8--5----|

Second Verse:
e|---------|
B|---------|
G|--9--9---|
D|--10-10--|
A|--8--8---|
D|--0--8---| x3

Second Pre-Chorus:
e|-----------5---|
B|-----------6---|
G|--9--9--10-7---|
D|--10-10-10-7---|
A|--8--8--8--5---|
D|--0--8--8--5---|

Second Chorus:
e|--0----------------|
B|--6----------------|
G|--5-----10-5--5----|
D|--7--10-10-3--5----|
A|--0--7--8--3--3----|
D|--0--7--8--3-------| x4

Bridge:
e|-----3--5--------5------|
B|-----4--6--------6------|
G|--3--5--7--3--5--7--10--|
D|--3--5--7--3--5--7--7---|
A|--1--3--5--1--3--5--7---|
D|-----3--5--------5--7---|

Third Chorus:
e|--0----------------|
B|--6----------------|
G|--5-----10-5--5----|
D|--7--10-10-3--5----|
A|--0--7--8--3--3----|
D|--0--7--8--3-------| x4

Outro:
e|-----------|
B|--------6--|
G|--7--10-7--|
D|--7--10-7--|
A|--5--8--5--|
D|--0--8--5--| x2

Hope it helps everyone out!
Tap to rate this tab
 
# A B C D E F G H I J K L M N O P Q R S T U V W X Y Z