Song name
# A B C D E F G H I J K L M N O P Q R S T U V W X Y Z

Verse - The New Fury tab

-------------------------------------------------------------------------------
			     The New Fury (intro) - Verse
-------------------------------------------------------------------------------
Tabbed by: Jetfuel495

Tuning: Half step down




      E  S E  S S S E  S E  S S S    E  S E  S S S E  S E  S S  S  
D#||----------3-------------3-----|----------3-------------3------|
A#||--5-------------5-------------|--5-------------5---------5s-7-|
F#||-------4------4------4------4-|-------4------4------4---------|
C#||-----5------5------5------5---|-----5------5------5-----------|
G#||------------------------------|-------------------------------|
D#||------------------------------|-------------------------------|


  E   S  E  S  S  S E   S  E  S  S  S  
--------------------------------------|
--8---------8-------7---------7-------|
---------0--------0--------0--------0-|
-----(5)------(5)------(5)------(5)---|
--------------------------------------|
--------------------------------------|


   E    S   E    S   S   S   E    S   E    S   S   S   
------------------------------------------------------|
-----------(3)----------(3)----------(3)----------(3)-|
--(4)-----------(4)---------(4)-----------(4)---------|
-------(5)----------(5)----------(5)----------(5)-----|
------------------------------------------------------|
------------------------------------------------------|


  E  S E  S S S E  S E  S S S    E  S E  S S S E  S E  S S S  
----------3-------------3-----|----------3-------------3-----|
--5-------------5-------------|--5-------------5-------------|
-------4------4------4------4-|-------4------4------4------4-|
-----5------5------5------5---|-----5------5------5------5---|
------------------------------|------------------------------|
------------------------------|------------------------------|


    ^                                                             
    W                                                          
----0----------------|
----0----------------|
----0----------------|
----2----------------|
---------------------|
---------------------|



There's the intro. The rest of the song is coming soon.
Tap to rate this tab
 
# A B C D E F G H I J K L M N O P Q R S T U V W X Y Z