Guitaretab - guitar tabs
Song name
# A B C D E F G H I J K L M N O P Q R S T U V W X Y Z

Versus The Mirror - Birthed By Architecture tab

Versus The Mirror
Birthed By Architecture
Drop-D: e b g d a d
www.versusthemirror.net
*= palm mute

Intro(weird wah pedal thing)
-------------------------------------------|
---14--------------------------------------|    Just Keep strumming this
---x---------------------------------------|
---12--------------------------------------|
-------------------------------------------|
-------------------------------------------|
Then its a rythm of
----------------------------------------------------------|
----------------------------------------------------------|
----14-14-14-14-----14-14---------12-12-12-12---12-12-----|
----14-14-14-14-----14-14--x2-----12-12-12-12---12-12-x2--|
----12-12-12-12-----12-12---------10-10-10-10---10-10-----|
----------------------------------------------------------|
[ Tab from: http://www.guitaretab.com/v/versus-the-mirror/93288.html ]
Then this riff is the next riff that is also used for the chorus
--------------------------------------------------|
--------------------------------------------------|
--------------------------------------------------|
-3-3-3--------0-0-0--------7-7-7--------5-5-5-----|
-3-3-3--x2----0-0-0-x2-----7-7-7-x2-----5-5-5-x2--|
-3-3-3--------0-0-0--------7-7-7--------5-5-5-----|


Then this is the main riff
--------------------------------------------------------------------------|
--------------------------------------------------------------------------|
--------------------------------------------------------------------------|
--------14-14---------------15-15------------10-10-------9-9-9------------|
--------------x2----------------------------------------------------------|
-14-14---------------15-15-------------7-7----------5-5-------------------|
 *   *                *  *             * *          * *

Thats Basically it and also here is that fading out riff
-----------------------------------------------|
--3-3--0-0---3-3--0-0-----8-8--7-7-------------|
-----------------------------------------------|
-----------------------------------------------|
-----------------------------------------------|
-----------------------------------------------|

The End
were_wolf_333@yahoo.com

Figure out the rhythm for the song yourself!!!!!
Related for Birthed By Architecture tab
Advertisement will be closed in 10 seconds