Song name
# A B C D E F G H I J K L M N O P Q R S T U V W X Y Z

Versus The Mirror - Great White Zombie tab

Help us improve GuitareTab! Take a short survey!
Drop D

(Guitar 1)
0:00-0:39
e--------------------------|
B-----------12---------8---|
G---------9----------5-----| x6
D----9h10--------5h7-------|
A--0-----------------------|
D--------------3-----------|

0:40-1:07
e-------------------------------------|
B-------------------------------------|
G-------------------------------------|
D--7-7-7-7-7-7--3-3-3-3-3-3-3-3-3-----|    X2
A--7-7-7-7-7-7--3-3-3-3-3-3-3-3-3-----|
D--7-7-7-7-7-7--3-3-3-3-3-3-3-3-3-----|
(Follow song for timing)

1:08-1:33
e-------------------------------------------------------------------------|
B--12h13p12----15~--------------------------------------------------------|
G-----------12------9h10p9----10/12~----------12-----------------12-------|
D--------------------------10-----------10-------10--------10-------10----|
A------------------------------------10----10-------10--10----10-------10-|
D-------------------------------------------------------------------------|
                                 X2
1:34-1:47
e-------------------------------------|
B-------------------------------------|
G-------------------------------------|
D--7-7-7-7-7-7--3-3-3-3-3-3-3-3-3-----|    X1
A--7-7-7-7-7-7--3-3-3-3-3-3-3-3-3-----|
D--7-7-7-7-7-7--3-3-3-3-3-3-3-3-3-----|

1:48-1:59
e----------------------------------------------|
B-----------12----------12---------8---------8-|
G---------9-----------9----------5---------5---|
D----9h10--------9h10--------5h7-------5h7-----|
A--0-----------0-------------------------------|
D--------------------------3---------3---------|


2:07-2:13  (not 100% sure on this part)
e----------------------------------------------|
B----------------------------------------------|
G--10-10-10-10-10-10-10---9--9--9--9--9--9--9--|
D--7--7--7--7--7--7--7----7--7--7--7--7--7--7--|
A--7--7--7--7--7--7--7----7--7--7--7--7--7--7--|
D--7--7--7--7--7--7--7----7--7--7--7--7--7--7--|


2:14-2:40 (on last time, let '0' ring out)
e--------------------------------|
B--------------------------------|
G--------------------------------|   X4
D--7-7-7--0-0-0-0-0--3-3-3-3-3-3-|
A--7-7-7--0-0-0-0-0--3-3-3-3-3-3-|
D--7-7-7--0-0-0-0-0--3-3-3-3-3-3-|


2:40-2:53  (when going from 9  back to 5, you can side from 10 to 5)
e-----------------------------------------------------|
B-----------------------------------------------------|
G--5--5--5--5--5--5--5--5--5--9--9--9--9--9--9--9--9--|  X2
D---0--0--0--0--0--0--0--0--0--0--0--0--0--0--0--0--0-|
A-----------------------------------------------------|
D-----------------------------------------------------|


2:54-3:07
e--------------------------|
B-----------12---------8---|
G---------9----------5-----|  X2
D----9h10--------5h7-------|
A--0-----------------------|
D--------------3-----------|

3:08-3:19
e--------------------------|
B--------------------------|
G---------9----------5-----| x2
D----9h10--------5h7-------|
A--0-----------------------|
D--------------3-----------|

End on:

e-------|
B-------|
G--5/12-|
D-------|
A-------|
D-------|

(Guitar 2)

0:12-0:26 (Not exactly 5/12, but you do that to start the next one)
e----------------------|
B----------------------|
G--12\9~-9\7~-7\5-5/12-|  X4
D----------------------|
A----------------------|
D----------------------|

0:27-0:39
e-----------------------------------------------|
B-----------------------------------------------|
G--12-12-12-12-12-9-9-9-9-9-7-7-7-7-7-5-5-5-5-5-| x2
D-----------------------------------------------|
A-----------------------------------------------|
D-----------------------------------------------|

0:40-1:07
e-------------------------------------|
B-------------------------------------|
G-------------------------------------|
D--7-7-7-7-7-7--3-3-3-3-3-3-3-3-3-----|    X2
A--7-7-7-7-7-7--3-3-3-3-3-3-3-3-3-----|
D--7-7-7-7-7-7--3-3-3-3-3-3-3-3-3-----|
(Follow song for timing)

*there is strumming in here, but i dont feel like tabbing that out*


1:20-1:33
e----------------------|
B----------------------|
G--12\9~-9\7~-7\5-5/12-|  X2
D----------------------|
A----------------------|
D----------------------|

1:34-1:59
e-------------------------------------|
B-------------------------------------|
G-------------------------------------|
D--7-7-7-7-7-7--3-3-3-3-3-3-3-3-3-----|    X2
A--7-7-7-7-7-7--3-3-3-3-3-3-3-3-3-----|
D--7-7-7-7-7-7--3-3-3-3-3-3-3-3-3-----|

2:00-2:13
e----------------|
B----------------|
G--9-9-9-9-9-9-9-|
D--7-7-7-7-7-7-7-|
A--7-7-7-7-7-7-7-|
D--7-7-7-7-7-7-7-|

2:14-2:40 (on last time, let '0' ring out)
e--------------------------------|
B--------------------------------|
G--------------------------------|   X4
D--7-7-7--0-0-0-0-0--3-3-3-3-3-3-|
A--7-7-7--0-0-0-0-0--3-3-3-3-3-3-|
D--7-7-7--0-0-0-0-0--3-3-3-3-3-3-|

2:40-2:53
e-------------------------------------|
B-------------------------------------|
G-------------------------------------|
D--7-7-7-7-7-7-7-7--3-3-3-3-3-3-3-3-3-|
A--7-7-7-7-7-7-7-7--3-3-3-3-3-3-3-3-3-|
D--7-7-7-7-7-7-7-7--3-3-3-3-3-3-3-3-3-|
   . . . . . . . .  . . . . . . . . .

2:54-3:19 (A little varation at the end)
e----------------------|
B----------------------|
G--12\9~-9\7~-7\5-5/12-|  X4
D----------------------|
A----------------------|
D----------------------|

End on:

e-------|
B-------|
G--5/12-|
D-------|
A-------|
D-------|

this may not be 100% exact, but if you listen to the song, youll get it


"I could see the souls seeping through the stones on the horizon
on the horizon

my movements are drapes in a state of the art
your emotions lack the face I value in my state of the art

the oaks are over and the forest is now the shoulder
of all uncontrollable monotony
i pity you who know nothing
while i walk softer than this city

my movements are drapes in a state of the art
your emotions lack the face I value in my state of the art

keep in mind there is no such thing as awkward silence
when you're talking to yourself
won't you keep in mind there is no such thing as awkward silence
when you're talking to yourself"
Related for Great White Zombie tab