Guitaretab - guitar tabs
Song name
# A B C D E F G H I J K L M N O P Q R S T U V W X Y Z

Vertical Horizon - Underwater tab

#-----------------------------PLEASE NOTE---------------------------------#
# This file is the author's own work and                                  #
# represents their interpretation of the song.                            #
# You may only use this file for private study, scholarship, or research. #
#-------------------------------------------------------------------------#


---------------------------------------------------------------------------
     Underwater (full song) - Vertical Horizon
---------------------------------------------------------------------------
Tabbed by: Joshua P.
Date: Aug. 24, 2007
Email: tereg@alumni.utexas.net

Tuning: EADGB(d) (Capo 1, drop e 1 step)

Note: Fingering is relative to capo

Intro (2x):

d  |---2---2---2---2---3---3---3---3---5---5---5---5---5---5---5---5-------|
B  |-3---3---3---3---3---3---3---3-----------------------------------------|
G  |---------------------------------5---7---5---7---5---7---5---7---------|
D  |-----------------------------------------------------------------------|
A  |-----------------------------------------------------------------------|
E  |-----------------------------------------------------------------------|

Verse 1:

d  |---2---2---2---2---3---3---3---3---5---5---5---5---5---5---5---5-------|
B  |-3---3---3---3---3---3---3---3-----------------------------------------|
G  |---------------------------------5---7---5---7---5---7---5---7---------|
D  |-----------------------------------------------------------------------|
A  |-----------------------------------------------------------------------|
E  |-----------------------------------------------------------------------|
             ^ You and I are here                    ^ Underwater


d  |---2---2---2---2---3---3---3---3---5---5---5---5---5---5---5---5-------|
B  |-3---3---3---3---3---3---3---3-----------------------------------------|
G  |---------------------------------5---7---5---7---5---7---5---7---------|
D  |-----------------------------------------------------------------------|
A  |-----------------------------------------------------------------------|
E  |-----------------------------------------------------------------------|
             ^ Seconds are so dear                   ^ Underwater


d  |---2---2---2---2---3---3---3---3---5---5---5---5---5---5---5---5-------|
B  |-3---3---3---3---3---3---3---3-----------------------------------------|
G  |---------------------------------5---7---5---7---5---7---5---7---------|
D  |-----------------------------------------------------------------------|
A  |-----------------------------------------------------------------------|
E  |-----------------------------------------------------------------------|
            ^ I'm searching for a light              ^ to draw me closer


d  |---2---2---2---2---3---3---3---3---5---5---5---5---5---5---5---5-------|
B  |-3---3---3---3---3---3---3---3-----------------------------------------|
G  |---------------------------------5---7---5---7---5---7---5---7---------|
D  |-----------------------------------------------------------------------|
A  |-----------------------------------------------------------------------|
E  |-----------------------------------------------------------------------|
            ^ I hold my breath in tight              ^ bring me closer I

Pre-Transition:

d  |-----0-------0-------0-------0-------0-------0-------0-------0---------|
B  |---3---3---3---3---3---3---3---3---3---3---3---3---5---5---5---5-------|
G  |-3-------3-------3-------3-------0-------0-------5-------5-------------|
D  |-----------------------------------------------------------------------|
A  |-----------------------------------------------------------------------|
E  |-----------------------------------------------------------------------|
     ^ feel your touch       ^ Will you pull me up again?


Transition, same as intro (2x):

d  |---2---2---2---2---3---3---3---3---5---5---5---5---5---5---5---5-------|
B  |-3---3---3---3---3---3---3---3-----------------------------------------|
G  |---------------------------------5---7---5---7---5---7---5---7---------|
D  |-----------------------------------------------------------------------|
A  |-----------------------------------------------------------------------|
E  |-----------------------------------------------------------------------|
                 ^ Oooooh                        ^ Oooooh


Verse 2:

d  |---2---2---2---2---3---3---3---3---5---5---5---5---5---5---5---5-------|
B  |-3---3---3---3---3---3---3---3-----------------------------------------|
G  |---------------------------------5---7---5---7---5---7---5---7---------|
D  |-----------------------------------------------------------------------|
A  |-----------------------------------------------------------------------|
E  |-----------------------------------------------------------------------|
             ^ It's not so bad down here             ^ Underwater


d  |---2---2---2---2---3---3---3---3---5---5---5---5---5---5---5---5-------|
B  |-3---3---3---3---3---3---3---3-----------------------------------------|
G  |---------------------------------5---7---5---7---5---7---5---7---------|
D  |-----------------------------------------------------------------------|
A  |-----------------------------------------------------------------------|
E  |-----------------------------------------------------------------------|
             ^ Once you get past the fear            ^ Underwater


d  |---2---2---2---2---3---3---3---3---5---5---5---5---5---5---5---5-------|
B  |-3---3---3---3---3---3---3---3-----------------------------------------|
G  |---------------------------------5---7---5---7---5---7---5---7---------|
D  |-----------------------------------------------------------------------|
A  |-----------------------------------------------------------------------|
E  |-----------------------------------------------------------------------|
            ^ I sense you through the haze           ^ just like a memory


d  |---2---2---2---2---3---3---3---3---5---5---5---5---5---5---5---5-------|
B  |-3---3---3---3---3---3---3---3-----------------------------------------|
G  |---------------------------------5---7---5---7---5---7---5---7---------|
D  |-----------------------------------------------------------------------|
A  |-----------------------------------------------------------------------|
E  |-----------------------------------------------------------------------|
            ^ I've been down here for days           ^ have you seen me I


Pre-bridge:
[ Tab from: http://www.guitaretab.com/v/vertical-horizon/131783.html ]
d  |-----0-------0-------0-------0-------0-------0-------0-------0---------|
B  |---3---3---3---3---3---3---3---3---3---3---3---3---5---5---5---5-------|
G  |-3-------3-------3-------3-------0-------0-------5-------5-------------|
D  |-----------------------------------------------------------------------|
A  |-----------------------------------------------------------------------|
E  |-----------------------------------------------------------------------|
     ^ feel your touch       ^ Will you pull me up again?


Bridge (2x):

d  |---2---2---2---2---3---3---3---3---5---5---5---5---5---5---5---5-------|
B  |-3---3---3---3---3---3---3---3-----------------------------------------|
G  |---------------------------------5---7---5---7---5---7---5---7---------|
D  |-----------------------------------------------------------------------|
A  |-----------------------------------------------------------------------|
E  |-----------------------------------------------------------------------|
                 ^ Oooooh                        ^ Oooooh

Bridge part 2:

d  |-----0-------0-------0-------0-------0-------0-------0-------0---------|
B  |---3---3---3---3---3---3---3---3---3---3---3---3---5---5---5---5-------|
G  |-3-------3-------3-------3-------0-------0-------5-------5-------------|
D  |-----------------------------------------------------------------------|
A  |-----------------------------------------------------------------------|
E  |-----------------------------------------------------------------------|


Verse 3:

d  |---2---2---2---2---3---3---3---3---5---5---5---5---5---5---5---5-------|
B  |-3---3---3---3---3---3---3---3-----------------------------------------|
G  |---------------------------------5---7---5---7---5---7---5---7---------|
D  |-----------------------------------------------------------------------|
A  |-----------------------------------------------------------------------|
E  |-----------------------------------------------------------------------|
             ^ It's all the same to me               ^ Underwater


d  |---2---2---2---2---3---3---3---3---5---5---5---5---5---5---5---5-------|
B  |-3---3---3---3---3---3---3---3-----------------------------------------|
G  |---------------------------------5---7---5---7---5---7---5---7---------|
D  |-----------------------------------------------------------------------|
A  |-----------------------------------------------------------------------|
E  |-----------------------------------------------------------------------|
             ^ There's nothing much to see           ^ Underwater


d  |---2---2---2---2---3---3---3---3---5---5---5---5---5---5---5---5-------|
B  |-3---3---3---3---3---3---3---3-----------------------------------------|
G  |---------------------------------5---7---5---7---5---7---5---7---------|
D  |-----------------------------------------------------------------------|
A  |-----------------------------------------------------------------------|
E  |-----------------------------------------------------------------------|
            ^ I cannot make a sound                  ^ but I can listen


d  |---2---2---2---2---3---3---3---3---5---5---5---5---5---5---5---5-------|
B  |-3---3---3---3---3---3---3---3-----------------------------------------|
G  |---------------------------------5---7---5---7---5---7---5---7---------|
D  |-----------------------------------------------------------------------|
A  |-----------------------------------------------------------------------|
E  |-----------------------------------------------------------------------|
            ^ I can't tell up from down           ^ and now I miss them I

Pre-outro:

d  |-----0-------0-------0-------0-------0-------0-------0-------0---------|
B  |---3---3---3---3---3---3---3---3---3---3---3---3---5---5---5---5-------|
G  |-3-------3-------3-------3-------0-------0-------5-------5-------------|
D  |-----------------------------------------------------------------------|
A  |-----------------------------------------------------------------------|
E  |-----------------------------------------------------------------------|
     ^ feel your touch       ^ Will you pull me up again?

d  |---2---2---2---2---3---3---3---3---------------------------------------|
B  |-3---3---3---3---3---3---3---3-----------------------------------------|
G  |-----------------------------------------------------------------------|
D  |-----------------------------------------------------------------------|
A  |-----------------------------------------------------------------------|
E  |-----------------------------------------------------------------------|
                 ^ Oooooh       ^ You're 

d  |-----0-------0-------0-------0-------0-------0-------0-------0---------|
B  |---3---3---3---3---3---3---3---3---3---3---3---3---5---5---5---5-------|
G  |-3-------3-------3-------3-------0-------0-------5-------5-------------|
D  |-----------------------------------------------------------------------|
A  |-----------------------------------------------------------------------|
E  |-----------------------------------------------------------------------|
     ^ just in sight         ^ Will you save my life again?


Outro (8x):

d  |---2---2---2---2---3---3---3---3---5---5---5---5---5---5---5---5-------|
B  |-3---3---3---3---3---3---3---3-----------------------------------------|
G  |---------------------------------5---7---5---7---5---7---5---7---------|
D  |-----------------------------------------------------------------------|
A  |-----------------------------------------------------------------------|
E  |-----------------------------------------------------------------------|
                 ^ Oooooh                        ^ Oooooh


d  |-2---2---2---2---2---2---2---2---2---2---2---2---2---2-----------------|
B  |---3---3---3---3---3---3---3---3---3---3---3---3---3---3---------------|
G  |-----------------------------------------------------------------------|
D  |-----------------------------------------------------------------------|
A  |-----------------------------------------------------------------------|
E  |-----------------------------------------------------------------------|
             ^ You and I are here

d  |-2---2---2---2---2---2---2---2---2---2----2----------------------------|
B  |---3---3---3---3---3---3---3---3---3---3--3----------------------------|
G  |-----------------------------------------------------------------------|
D  |-----------------------------------------------------------------------|
A  |-----------------------------------------------------------------------|
E  |-----------------------------------------------------------------------|
             ^ Underwater
Related for Underwater tab
Advertisement will be closed in 10 seconds