Song name
# A B C D E F G H I J K L M N O P Q R S T U V W X Y Z

Vertical Horizon - Everything You Want Acoustic tab

-------------------------------------------------------------------------------
		     Everything You Want - Vertical Horizon / Boyce Avenue
-------------------------------------------------------------------------------
Tabbed by:Dave
Email:

Tuning:Half step down (eb,Bb,Gb,Db,Ab,Eb)

Intro:

eb|-0--0--0--0--0--0--0--0--0--0--0--0--0--0--0--0--0--0--0--0--0--0--0--0----|
Bb|-3--5--5--3--5--5--3--5--3--5--5--3--5--5--8--7--3--5--5--3--5--5--3--5----|
Gb|---------------------------------------------------------------------------|
Db|---------------------------------------------------------------------------|
Ab|---------------------------------------------------------------------------|
Eb|---------------------------------------------------------------------------|

eb|-0--0--0--0--0--0--0--0---|
Bb|-3--5--5--3--5--5--1--0---|
Gb|--------------------------|
Db|--------------------------|
Ab|--------------------------|
Eb|--------------------------|

Intro/Verse:

   Am             Em                                        Cadd9

eb|---------------------------------------------------------------------------|
Bb|---------1---0------------0-----0----0--0--3----3--3--3--3-------3--3----3-|
Gb|-0--h2---2---0---------0--0--0--0----0--0--0----0--0--0--0-------0--0----0-|  10x
Db|-0--h2---2---0--0--h2--2--2--2--2----2--2--0----0--0--0--0--h2---2--2----2-|
Ab|----------------0--h2--2-----2--2----2--2--2----2--2--2--3-------3--3----3-|
Eb|---------------------------------------------------------------------------|

Chorus:

   Am       G                            Em/G            D

eb|-3----3--3--3--3--3--3----3----3--3---3----3----3--3--2---3---2---3--------|
Bb|-1----1--3--3--3--3--3----3----3--3---3----3----3--3--3---3---3---3--------|
Gb|-2----2--0--0--0--0--0----0----0--0---0----0----0--0--2---2---2---2--------|   x3
Db|-2----2--0--0--0--0--0----0----0--0---2----2----2--2--0---0---0---0--------|
Ab|-0----0-------------------------------2----2----2--2----------------------|
Eb|---------3--3--3--3--3----3----3--3----------------------------------------|

    Am      Em/G                        D               Cadd9

eb|-3----3--3--3--3--3--3----3----3--3--2----2----2--2--3---------------------|
Bb|-1----1--3--3--3--3--3----3----3--3--3----3----3--3--3---------------------|
Gb|-2----2--0--0--0--0--0----0----0--0--2----2----2--2--0---------------------|
Db|-2----2--2--2--2--2--2----2----2--2--0----0----0--0--2---------------------|
Ab|-0----0--2--2--2--2--2----2----2--2------------------3---------------------|
Eb|---------------------------------------------------------------------------|

Verse: (Same as above) 6x

Chorus: (Same as above)

Bridge:

eb|---------------------------2-------3----------------|
Bb|-3--------3--------3-------3--4x---3----------------|
Gb|-0--------0--------0-------2-------0----------------|    2x
Db|-2--8x----2--8x----2--8x---0-------2----------------|
Ab|-2--------3--------2---------------3----------------|
Eb|-0-----------------0--------------------------------|

Verse: (Same as above) 4x

Chorus: (Same as above)2x

Outro: (Same as Verse above) 4x





************************************

| /   slide up
| \   slide down
| h   hammer-on
| p   pull-off
| ~   vibrato
| +   harmonic
| x   Mute note
| b   Bend
| pb  Pre-bend
| br  Bend release
| pbr Pre-bend release
| brb Bend release bend

************************************
Tap to rate this tab
 
# A B C D E F G H I J K L M N O P Q R S T U V W X Y Z