Song name
# A B C D E F G H I J K L M N O P Q R S T U V W X Y Z

Vertical Horizon - Underwater tab

Song: Underwater
Artist: Vertical Horizon
Album: Go

Amazing song, finally got around to tabbing it out. This is defiantly what 
they play, I tabbed it out then looked at live performances to confirm. 
Bass tab will be up soon. Enjoy :D

Intro/Main Verse/Chorus:

eb|-----0-------0-------0-------0--------0---------0----------0--------0----|
Bb|---7---7---7---7---8---8---8---8---10---10---10---10---10---10---10---10-|
Gb|-9-------9-------9-------9-------7---------7---------7---------7---------|
Db|-------------------------------------------------------------------------|
Ab|-------------------------------------------------------------------------|
Eb|-------------------------------------------------------------------------|

Second Part:

eb|-----0-------0-------0-------0-------0-------0-------0-------0---|
Bb|---5---5---5---5---5---5---5---5-------------------7---7---7---7-|
Gb|-5-------5-------5-------5---------5---5---5---5-7-------7-------|
Db|---------------------------------7-------7-----------------------|
Ab|-----------------------------------------------------------------|
Eb|-----------------------------------------------------------------|

Ending:
                              X6 
eb|-----------------------------|-------|
Bb|-7---7---7---7---7---7---7---|-7-----|
Gb|---9---9---9---9---9---9---9-|-9-----|
Db|-----------------------------|-------|
Ab|-----------------------------|-------|
Eb|-----------------------------|-------|

*At 3:00 the main part is cut short and goes straight into second part.
Tap to rate this tab
 
# A B C D E F G H I J K L M N O P Q R S T U V W X Y Z