Vertical Horizon - Save Me From Myself tab

I took this from an acoustic version on Youtube. Tune down half step to play with the CD.  

Main Riff:
|-------------------------------------------------|
|-------------------------------------------------|
|-4-44--44-22-5---2-22-----55---------------------|
|-2-22--22-22-2---5-55---44444--------------------|
|-2-22--22-22-2---3-33---55555--------------------|
|-------------------------------------------------|

Verse
|-------xx---------xx-------3-33--5-55------------|
|-------xx---------xx-------3-33--5-55------------|
|-9-99--xx-10-1010-xx-9-99--5-55--7-77------------|
|-9-99--xx-7--7-7--xx-9-99--5-55--7-77------------|
|-7-77--xx-7--7-7--xx-7-77--3-33--5-55------------|
|-------xx----------------------------------------|

Chorus
|---00----------00--------------------------------|
|---00--11--33--00--------------------------------|
|---00--00--00--00--------------------------------|
|-2-22--22--44--22--------------------------------|
|-2-22--33--55--22--------------------------------|
|-------33--55------------------------------------|
Tap to rate this tab
 
# A B C D E F G H I J K L M N O P Q R S T U V W X Y Z