Song name
# A B C D E F G H I J K L M N O P Q R S T U V W X Y Z

Vertical Horizon - Best I Ever Had tab

Best I Ever Had by Vertical Horizon

Tabbed by: Joshua Kuizon
Email: jkuizon_23@yahoo.com

Tuning:Standard

Intro (2x)
e|-------------------------------------------------------|
B|-------------------------------------------------------|
G|-------------------------------------------------------|
D|--4--6--9--4--4----------------------------------------|
A|--4--6--9--4--4----------------------------------------|
E|--2--4--7--2--1----------------------------------------|

Verse1 (2x)
e|-------------------------------------------------------|
B|-------------------------------------------------------|
G|-------------------------------------------------------|
D|--4--6--9--4--4----------------------------------------|
A|--4--6--9--4--4----------------------------------------|
E|--2--4--7--2--1----------------------------------------|

    So you sailed away into a grey sky morning…

e|--------------------------------------------------|
B|--------------------------------------------------|
G|-------4-------4----------------------------------|
D|---6---4---6---4----------------------------------|
A|---6---2---6---2----------------------------------|
E|---4-------4--------------------------------------|

    Nothings quite the same now…

Chorus
e|--------------------|---------------------------------|
B|--------------------|---------------------------------|
G|--------------------|---------------------------------|
D|--4--6--9--4--4—(2x)|---4---6---9—(pause)-------------|
A|--4--6--9--4--4-----|---4---6---9---------------------|
E|--2--4--7--2--1-----|---2---4---7---------------------|

   But it’s not so bad…

Verse2 (2x)
e|-------------------------------------------------------|
B|-------------------------------------------------------|
G|-------------------------------------------------------|
D|--4--6--9--4--4----------------------------------------|
A|--4--6--9--4--4----------------------------------------|
E|--2--4--7--2--1----------------------------------------|

   So you stole my world…

e|--------------------------------------------------|
B|--------------------------------------------------|
G|-------4-------4----------------------------------|
D|---6---4---6---4----------------------------------|
A|---6---2---6---2----------------------------------|
E|---4-------4--------------------------------------|

   Send it in a letter…

Chorus
e|--------------------|
B|--------------------|
G|--------------------|
D|--4--6--9--4--4—(2x)|
A|--4--6--9--4--4-----|
E|--2--4--7--2--1-----|

   But it’s not so bad…

Brige
e|----------------------|-----------------------------------|
B|----------------------|-----------------------------------|
G|--1------------------ |--1--------------------------------|
D|--2--4--9—-8--6--(3x)-|--2--------------------------------|
A|--2--4--9--8--6-------|--2--------------------------------|
E|-----2--7--6--4-------|-----------------------------------|

      And it may take some time to patch me up inside…

Verse3 (2x)
e|-------------------------------------------------------|
B|-------------------------------------------------------|
G|-------------------------------------------------------|
D|--4--6--9--4--4----------------------------------------|
A|--4--6--9--4--4----------------------------------------|
E|--2--4--7--2--1----------------------------------------|

    So you sailed away into a grey sky morning…

e|--------------------------------------------------|
B|--------------------------------------------------|
G|-------4-------4----------------------------------|
D|---6---4---6---4----------------------------------|
A|---6---2---6---2----------------------------------|
E|---4-------4--------------------------------------|

   What was it you wanted…

Chorus
e|--------------------|
B|--------------------|
G|--------------------|
D|--4--6--9--4--4—(2x)|
A|--4--6--9--4--4-----|
E|--2--4--7--2--1-----|

   But it’s not so bad…

Outro
e|--------------------|--------|
B|--------------------|--------|
G|--------------------|--------|
D|--4--6--9--4--4—(2x)|--4-----|
A|--4--6--9--4--4-----|--4-----|
E|--2--4--7--2--1-----|--2-----|

Note: this is the most exact chords I could ever find. Try to play it with the song so 
you can know the correct timing of the strumming…Have Fun!
Tap to rate this tab
# A B C D E F G H I J K L M N O P Q R S T U V W X Y Z