Song name
# A B C D E F G H I J K L M N O P Q R S T U V W X Y Z

Vertical Horizon - Send It Up tab

Vertical Horizon
Send It Up
Everything You Want (1999)

CAPO 2
(In some videos you'll see him use Capo 3 because his guitar is tuned down 1/2 step)

Intro/Verse
e--------------------------------|
B--------------------------------|
G-------0-x---0-x---0-x--0h2-2p0-|
D-------2-x---0-x---2-x--0---0---|
A-----------------3--------------|
E---0-0-----3--------------------|

"I'm alright by the way..."

e--33--3-------3----|
B--33--3-------3----|
G--00--0-------0----|  2x
D--22--2-------0----|
A--33--3-------2----|
E--------------3----|

"Sometimes I feel it"

e--33----3-3-|
B--33----3-3-|
G--22----2-2-|
D--22----0-0-|
A--00--------|
E------------|

CHORUS:

G  Dsus4   Cadd9
Send it up
Dsus4
Send it up now
G    Dsus4 Cadd9 Dsus4
Send it up


After second chorus:
Em7   Cadd9 Dsus4 (3x)
Em7   Cadd9.....

Outro
(same chords as the chorus)
then end on G and Cadd9
Tap to rate this tab
 
# A B C D E F G H I J K L M N O P Q R S T U V W X Y Z