Song name
# A B C D E F G H I J K L M N O P Q R S T U V W X Y Z

Vertical Horizon - When You Cry tab

Author/Artist: Vertical Horizon
Title: When You Cry
Album: Go
Year: 2003
Tabbed by: Lemuel Caparaz
Tuning: Half-step down

#----------------------------------PLEASE NOTE--------------------------------#
#This file is the author's own work and represents their interpretation of the#
#song. You may ONLY use this file for private study, scholarship, or research.#
#-----------------------------------------------------------------------------#

Intro (acoustic guitar only on the first 2 measures)

eb||-----------------3--------|----------------3---------||
Bb||o----------------3--------|----------------3--------o||
Gb||--------x-x---------0-x-x-|-------x-x---------2-22---||
Db||--5/4-2-x-x---------0-x-x-|-5/4-2-x-x---------2-22---||
Ab||o-5/4-2-x-x-2/3-3---x-x-x-|-5/4-2-x-x-2/3-3---0-00--o||
Eb||--3/2-0-x-x---------3-x-x-|-3/2-0-x-x----------------||

Verse

Both guitars
eb||-----------------3--------|----------------3--------||
Bb||o----------------3--------|----------------3-------o||
Gb||--------x-x---------0-x-x-|-------x-x---------2-22--|| 4x
Db||--5/4-2-x-x---------0-x-x-|-5/4-2-x-x---------2-22--||
Ab||o-5/4-2-x-x-2/3-3---x-x-x-|-5/4-2-x-x-2/3-3---0-00-o||
Eb||--3/2-0-x-x---------3-x-x-|-3/2-0-x-x---------------||

Refrain

eb|-----------------------||
Bb|--3-x-3-x-3-x-3-3-3-3--||
Gb|--2-x-2-x-2-x-2-2-2-2--||
Db|--0-x-0-x-0-x-0-0-0-0--||
Ab|--x-x-x-x-x-x-x-x-x-x--||
Eb|--2-x-2-x-2-x-2-2-2-2--||

Chorus

Guitar 1
eb|-------------------|-------------------|
Bb|o------------------|------------------o|
Gb|-----------2-2-2-2-|-4-4-4-4-5-5-5-5---| 3x
Db|---5-5-5-5-2-2-2-2-|-4-4-4-4-5-5-5-5---|
Ab|o--5-5-5-5-0-0-0-0-|-2-2-2-2-3-3-3-3--o|
Eb|---3-3-3-3---------|-------------------|

Then Guitar 1 ends the chorus with this
eb|------------------------------||
Bb|------------------------------||
Gb|----------2-2-2-2-4-4-4-4-5~~-||
Db|--5-5-5-5-2-2-2-2-4-4-4-4-5~~-||
Ab|--5-5-5-5-0-0-0-0-2-2-2-2-3~~-||
Eb|--3-3-3-3---------------------||

Guitar 2
eb|-------3------3------3------3---|
Bb|o------3------3------3------3--o|
Gb|-------0------0------0------0---| 3x
Db|------------2------0------0-----|
Ab|o----2----0------2------3------o|
Eb|---3----------------------------|

Then Guitar 2 ends the chorus with this
eb|------3------3------3--3~~||
Bb|------3------3------3--3~~||
Gb|------0------0------0--0~~||
Db|-----------2------0----x~~||
Ab|----2----0------2------3~~||
Eb|--3-----------------------||

Bridge

Guitar 1
eb|-------------------|------------||
Bb|o------------------|-----------o||
Gb|---2-2-2-2-2-2-2-2-|------------||
Db|---2-2-2-2-2-2-2-2-|-4444-x-3---||
Ab|o--0-0-0-0-0-0-0-0-|-5555-x-3--o||
Eb|-------------------|-2222-x-1---||

Guitar 2
eb|----------------------|------------||
Bb|o--1-1-1-0-0-0-1p0----|-----------o||
Gb|---2-2-2-2-2-2----2p0-|------------||
Db|----------------------|-4444-x-3---||
Ab|o---------------------|-5555-x-3--o||
Eb|----------------------|-2222-x-1---||

Verse

Guitar 1 (it's either a wah pedal or an auto-wah)
eb|--------------------------------||
Bb|o------------------------------o||
Gb|---9h7h9--9h7h9--9h7h9--9h7h9---|| 8x
Db|--------------------------------||
Ab|o------------------------------o||
Eb|--------------------------------||

Guitar 2 (enters after the first 4 measures)
eb||-----------------3--------|----------------3---------||
Bb||o----------------3--------|----------------3--------o||
Gb||--------x-x---------0-x-x-|-------x-x---------2-22---||
Db||--5/4-2-x-x---------0-x-x-|-5/4-2-x-x---------2-22---||
Ab||o-5/4-2-x-x-2/3-3---x-x-x-|-5/4-2-x-x-2/3-3---0-00--o||
Eb||--3/2-0-x-x---------3-x-x-|-3/2-0-x-x----------------||

Refrain

eb|----------------------|---------------------||
Bb|--3-x-3-x-3-x-3-x-3-3-|-3-x-3-x-3-x-3-x-3-3-||
Gb|--2-x-2-x-2-x-2-x-2-2-|-2-x-2-x-2-x-2-x-2-2-||
Db|--0-x-0-x-0-x-0-x-0-0-|-0-x-0-x-0-x-0-x-0-0-||
Ab|--x-x-x-x-x-x-x-x-x-x-|-x-x-x-x-x-x-x-x-x-x-||
Eb|--2-x-2-x-2-x-2-x-2-2-|---------------------||

Chorus

Guitar 2
eb|------------------|-----------------|-----------------|------------|
Bb|o--15r13-12---10--|--15r13-12---10--|--15r13-12---10--|-(10)-8~~~-o|
Gb|------------------|-----------------|-----------------|------------|
Db|------------------|-----------------|-----------------|------------|
Ab|o-----------------|-----------------|-----------------|-----------o|
Eb|------------------|-----------------|-----------------|------------|

Guitar 1
eb|---3------3---|---3------3-----|
Bb|o--3------3---|---3------3----o|
Gb|---0------0---|---0------0-----| 3x
Db|---0------2---|---0------x-----|
Ab|o--2------0---|---2------3----o|
Eb|---3----------|----------------|

Both guitars end with this
eb|------3--||
Bb|------3--||
Gb|------0--||
Db|------x--||
Ab|--2-3-3--||
Eb|---------||

-END-
Tap to rate this tab
 
# A B C D E F G H I J K L M N O P Q R S T U V W X Y Z