Song name
# A B C D E F G H I J K L M N O P Q R S T U V W X Y Z

Veruca Salt - Hellraiser tab

-------------------------------------------------------------------------------
			     HELLRAISER - Veruca Salt
-------------------------------------------------------------------------------
Tabbed by: Karina
Email: magickmidget@hotmail.com

Tuning: Standard
Verses (mostly bass until "do you hang out with the..."
e|---------------------------|
B|---------------------------|
G|---------------------------|
D|--7777777777777777--3333-2-|
A|--7777777777777777--3333-2-|
E|--5555555555555555--1111-0-|

Chorus - I think it follows the bass with some effects
e|---------------------------------------------------|
B|---------------------------------------------------|
G|---------------------------------------------------|
D|-5h7--7--7p5----------------5h7--5--5--------------|
A|--------------7--5--5--5h7-------------7/88888888^-|
E|---------------------------------------------------|

"you will pay for your mistakes..."
e|-----------|
B|-----------|
G|-----------|
D|-7--3--5-2-|
A|-7--3--5-2-|
E|-5--1--3-0-|


| /  slide up
| \  slide down
| h  hammer-on
| p  pull-off
| ~  vibrato
| +  harmonic
| x  Mute note
===============================================================================
Tap to rate this tab
# A B C D E F G H I J K L M N O P Q R S T U V W X Y Z