Song name
# A B C D E F G H I J K L M N O P Q R S T U V W X Y Z

Veruca Salt - Damage Done tab

-------------------------------------------------------------------------------
			     DAMAGE DONE - Veruca Salt
-------------------------------------------------------------------------------
Tabbed by: Vicki
Email: need_my_moonage@hotmail.com

Tuning: E A D G B e

Intro:

e|------------------------------------------------------------------------|
B|------------------------------------------------------------------------|
G|------------------------------------------------------------------------|
D|------------------------------------------------------------------------|
A|------------------------------------------------------------------------|
E|-0-0-0-7\6-0-6\5-0-5\4-0-0-2/3------------------------------------------|

Main riff:

e|------------------------------------------------------------------------|
B|------------------------------------------------------------------------|
G|------------------------------------------------------------------------|
D|--------2-2-2-9\8---8\7---7\6-----4\5-----------------------------------|
A|--------2-2-2-9\8---8\7---7\6-----4\5-----------------------------------|
E|-/12----0-0-0-7\6-0-6\5-0-5\4-0-0-2\3-----------------------------------|

Verse:

e|------------------------------------------------------------------------|
B|-----(sometimes no------------------------------------------------------|
G|------harmonics are-----------------------------------------------------|
D|-7-7-played here)----7-7------------------2-2-2-9\8---8\7---7\6-----4\5-|   x3
A|-7-7----v-v-v-v-v----7-7------------------2-2-2-9\8---8\7---7\6-----4\5-|
E|-5-5-+-+-+-+-+-+-+-+-5-5-+-+-+-+-+-+-+-+--0-0-0-7\6-0-6\5-0-5\4-0-0-2\3-|

Chorus: (strum these power chords according to the rhythm)

e|-------------------------------------------------------------------------|
B|-------------------------------------------------------------------------|
G|-------------------------------------------------------------------------|
D|---9------7------5------7-7-7-7------------------------------------------|
A|---9------7------5------7-7-7-7------------------------------------------|
E|---7------5------3------5-5-5-5------------------------------------------|

Then play the main riff followed by the Verse, then chorus, but on the third time
of playing the Verse, the main riff is left out and it goes straight into the chorus.

After the chorus the bass plays this a few times:

G|------------------------------------------------------------------------|
D|-------------------5\4--------------------------------------------------|
A|-5h7-7---5h7-7-5h7------------------------------------------------------|
E|-------0----------------------------------------------------------------|

The lead joins in with this:

e|-----------------------------------------------------------------------|
B|-----------------------------------------------------------------------|
G|---7-7-7-7-7-7-7-6-6-6-6-6-6-6-6-6-6-5-5-5-5-5-5-5-5-4-4-4-4-4-4-4-----|x2
D|-----------------------------------------------------------------------|
A|-----------------------------------------------------------------------|
E|-----------------------------------------------------------------------|

Then the lead plays this:

e|-----------------------------------------------------------------------|
B|-----12-12-----12-12-----12-12-----------------------------------------|
G|-14b-------14b-------14b-------14bbb-----------------------------------|
D|-----------------------------------------------------------------------|
A|-----------------------------------------------------------------------|
E|-----------------------------------------------------------------------|

Then strum these chords, followed by this octave:

e|-----------------------------------------------------------------------|
B|-----------------------------------------------------------------------|
G|----------------9~---------9~--------9~--------9~----------------------|
D|--9---7----------------------------------------------------------------|x2
A|--9---7---------7~---------7~--------7~--------7~----------------------|
E|--7---5---0-0-0------0-0-0-----0-0-0-----0-0-0-------------------------|

Then the first two chords of the chorus are played before the main riff is played until 
end


| /  slide up
| \  slide down
| h  hammer-on
| p  pull-off
| ~  vibrato
| +  harmonic
| x  Mute note
===============================================================================
Tap to rate this tab
# A B C D E F G H I J K L M N O P Q R S T U V W X Y Z