Song name
# A B C D E F G H I J K L M N O P Q R S T U V W X Y Z

Veruca Salt - The Museum Of Broken Relationships tab

THE MUSEUM OF BROKEN RELATIONSHIPS - Veruca Salt

Guitar TAB
by Matty Jay (miller_uwp@hotmail.com)
guitarist for Alyce Hart (www.alycehart.com)


Key of Gm

Love this rockin' new VS tune!
I don't have a record player (yet), so I'm doing this straight from the video, so 
apologies if something seems off!
Any questions or comments, shoot me an email!

Intro/Verse - Nina

e---------------------------------------------||
B---------------------------------------------||
G--------------------------------------------o||
D--------------------------------------------o||
A---------------------------------------------||
E--3--3--3-/6--6--6--0--1--1--1-/8--8--8--0---||


Verse - Louise (comes in at 0:40)

  G5
e---------------------------------------------||
B---------------------------------------------||
G--------------------------------------------o||
D--5--5--5--5--5--5--5--5--5--5--5--5--5--5--o||
A--5--5--5--5--5--5--5--5--5--5--5--5--5--5---||
E--3--3--3--3--3--3--3--3--3--3--3--3--3--5---||


Pre-Chorus - (at 1:10)

Nina and Louise continue with their riffs, while it sounds like another guitar is playing
something muted like this "Number One Blind"-esque part in the way background?

e-------------------------------------------------|
B--5--6--6--6--6--6--6--6--5--6--6--6--6--5--5--5-|
G-------------------------------------------------|
D-------------------------------------------------|
A-------------------------------------------------|
E-------------------------------------------------|

Chorus (1:28)

    G5          Bb5         F5        C5
e---------------------------------------------||
B---------------------------------------------||
G--------------------------------------------o|| play 3x
D--5--5--------8--8--------3--3-------10-10--o||  then
A--5--5--------8--8--------3--3-------10-10---||
E--3--3--------6--6--------1--1--------8--8---||

e--------------------------------------------------|
B--------------------------------------------------|
G--------------------------------------------------|
D--5--5--------8--8--------3--3-------10-10-10-10--|
A--5--5--------8--8--------3--3-------10-10-10-10--|
E--3--3--------6--6--------1--1--------8--8--8--8--|


(1:45)

e-----------------------------------------------||
B-----------------------------------------------||
G----------------------------------------------o|| play 3x
D--5--5--5-/8--8--8--8-----3--3--3/10-10-10----o||  then
A--5--5--5-/8--8--8--8-----3--3--3-10-10-10-----||
E--3--3--3-/6--6--6--6--0--1--1--1--8--8--8--0--||

e----------------------------------------------|
B----------------------------------------------|
G----------------------------------------------|
D--5--5--5-/8--8--8--8-----3--3----------------|
A--5--5--5-/8--8--8--8-----3--3----------------|
E--3--3--3-/6--6--6--6--0--1--1----------------|


(1:58)

e-----------------------------------------------||
B-----------------------------------------------||
G----------------------------------------------o|| play 2x
D--5--5--5-/8--8--8--8-----3--3--3/10-10-10----o||  then
A--5--5--5-/8--8--8--8-----3--3--3-10-10-10-----||
E--3--3--3-/6--6--6--6--0--1--1--1--8--8--8--0--||


(2:07)

e--------------------------------------------------||
B----------------------------------------(feedback)||
G-------------------------------------------------o|| play 3x
D--5--5--5-/8--8--8--8-----3--3--3/10-10----------o||  then
A--5--5--5-/8--8--8--8-----3--3--3-10-10-----------||
E--3--3--3-/6--6--6--6--0--1--1--1--8--8-----------||

e----------------------------------------------|
B----------------------------------------------|
G----------------------------------------------|
D--5--5--5-/8--8--8--8-----3--3--3/10-10-10----|
A--5--5--5-/8--8--8--8-----3--3--3-10-10-10----|
E--3--3--3-/6--6--6--6--0--1--1--1--8--8--8--0-|


(2:24)

e-----------------------------------------------||
B-----------------------------------------------||
G----------------------------------------------o|| play 3x
D--5--5--5-/8--8--8--8-----3--3--3/10-10-10----o||  then
A--5--5--5-/8--8--8--8-----3--3--3-10-10-10-----||
E--3--3--3-/6--6--6--6--0--1--1--1--8--8--8--0--||

e----------------------------------------------||
B----------------------------------------------||
G----------------------------------------------||
D--5--5--5-/8--8--8--8-----3--3--3/10-10-10----||
A--5--5--5-/8--8--8--8-----3--3--3-10-10-10----||
E--3--3--3-/6--6--6--6--0--1--1--1--8--8--8----||


C'est finis!

************************************

| /   slide up
| \   slide down
| h   hammer-on
| p   pull-off
| ~   vibrato
| +   harmonic
| x   Mute note
| b   Bend
| pb  Pre-bend
| br  Bend release
| pbr Pre-bend release
| brb Bend release bend

************************************
Tap to rate this tab
# A B C D E F G H I J K L M N O P Q R S T U V W X Y Z