Song name
# A B C D E F G H I J K L M N O P Q R S T U V W X Y Z

Veruca Salt - Its Holy tab

#----------------------------------PLEASE NOTE---------------------------------#
#This file is the author's own work and represents their interpretation of the #
#song. You may only use this file for private study, scholarship, or research. #
#------------------------------------------------------------------------------##


IT'S HOLY - Veruca Salt



Guitar TAB
by Matty Jay (miller_uwp@hotmail.com)
guitarist for Alyce Hart (www.alycehart.com)


I'm doing this from a really really rough recording of the single, so I apologize if something's off!
Any questions or comments, shoot me an email!


Key of B-major
Standard Tuning (E A D G B e) 


Intro:

Guitar 1:

  B5                                             A5  E5
e|---------------------------------------------------------------------||
B|--------------------------------------------------------------------o||
G|---------------------------------------------------------------------||
D|---------------------------------------------------------------------||
A|-9-9---9-9-9----9-9---9-9-9----9-9---9-9-9--9-9-7-7-14-14-14-14-14--o||
E|-7-7-9-7-7-7----7-7-9-7-7-7----7-7-9-7-7-7--7-7-5-5-12-12-12-12-12---||


Guitar 2: (lead)

|----------------------------------------------------------------------||
|---------------------------------------------------------------------o||
|-8-8-9-8-8-8--8-8-8-9-8-8-8--8-8-8-9-8-8-8--8-8-6-6-13-13-13-13-13----||
|-9-9-9-9-9-9--9-9-9-9-9-9-9--9-9-9-9-9-9-9--9-9-7-7-14-14-14-14-14----||
|---------------------------------------------------------------------o||
|----------------------------------------------------------------------||


Verse 1:

  B5                                             F#5 E5
|---------------------------------------------------------------||
|--------------------------------------------------------------o||
|---------------------------------------------------------------||
|---------------------------------------------------------------||
|-9-9---9-9-9----9-9---9-9-9----9-9---9-9-9--9-9-4-4-2-2-2-2-2-o||
|-7-7-9-7-7-7----7-7-9-7-7-7----7-7-9-7-7-7--7-7-2-2-0-0-0-0-0--||



1st Chorus:

  B5            A5      E5                D5                   A5
                                      3x
|--------------------------------------||------------------------------------------|
|-------------------------------------o||------------------------------------------|
|--------------------------------------||------------------------------------------|
|-9-9-9-9-9-9-9-7-7-7---14-14-14-14----||-12-12-12-12-12-12-12-7-7-7-7-7-7-7-7-7---|
|-9-9-9-9-9-9-9-7-7-7-x-14-14-14-14---o||-12-12-12-12-12-12-12-7-7-7-7-7-7-7-7-7---|
|-7-7-7-7-7-7-7-5-5-5-x-12-12-12-12-0--||-10-10-10-10-10-10-10-5-5-5-5-5-5-5-5-5---|

 "Day-y-ay-y......................."     "It's holy............................"


Interlude:

  B5                                      A5  E5
|---------------------------------------------------------|
|---------------------------------------------------------|
|---------------------------------------------------------|
|-9-9----9-9--9-9----9-9--9-9----9-9----------------------|
|-9-9----9-9--9-9----9-9--9-9----9-9--9-9-7-7-14-14-14----|
|-7-7--0-7-7--7-7--0-7-7--7-7--0-7-7--7-7-5-5-12-12-12----|


Verse 2:

  B5                                                  B5  F#5  E5
|--------------------------------------------------------------------------||
|-------------------------------------------------------------------------0||
|--------------------------------------------------------------------------||
|--------------------------------------------------------------------------||
|-9-9-------------------------------------------------9-9-4-4-2-2-2-2-2---0||
|-7-7-10-7-7-7-10-7-7-7-10-7-7-7-10-7-7-7-10-7-7-7-10-7-7-2-2-0-0-0-0-0----||



2nd Chorus:
                
  B5            A5      E5            
                                   3x
|--------------------------------------||
|-------------------------------------o||
|--------------------------------------||
|-9-9-9-9-9-9-9-7-7-7---14-14-14-14----||
|-9-9-9-9-9-9-9-7-7-7-x-14-14-14-14---o||
|-7-7-7-7-7-7-7-5-5-5-x-12-12-12-12-0--||

 "Day-y-ay-y......................." 



  D5                   A5                E5                   B5
|--------------------------------------------------------------------------------||
|-------------------------------------------------------------------------------o||
|--------------------------------------------------------------------------------||
|-12-12-12-12-12-12-12-7-7-7-7-7-7-7-7-7-14-14-14-14-14-14-14-9-9-9-9-9-9-9-7-7--||
|-12-12-12-12-12-12-12-7-7-7-7-7-7-7-7-7-14-14-14-14-14-14-14-9-9-9-9-9-9-9-7-7-o||
|-10-10-10-10-10-10-10-5-5-5-5-5-5-5-5-5-12-12-12-12-12-12-12-7-7-7-7-7-7-7-5-5--||

 "It's holy..................................................................."

  D5
|----------------------------------------------------|
|----------------------------------------------------|
|----------------------------------------------------|
|-12-12-12-12-12-12-12-12-12-12-12-12-12-12-12-12----|
|-12-12-12-12-12-12-12-12-12-12-12-12-12-12-12-12----|
|-10-10-10-10-10-10-10-10-10-10-10-10-10-10-10-10----|


Bridge:

  F#5  (hold chord for 4 measures)
|---------------------------------------|
|---------------------------------------|
|---------------------------------------|
|-4--------(4)--------(4)--------(4)----|
|-4--------(4)--------(4)--------(4)----|
|-2--------(2)--------(2)--------(2)----|

 F#5       A5       B5      F#5
|---------------------------------|
|---------------------------------|
|---------------------------------|
|-4--------7--------9--------4----|
|-4--------7--------9--------4----|
|-2--------5--------7--------2----|
  (hold these chords)

  F#5             A5              B5
|------------------------------------------------------|
|------------------------------------------------------|
|------------------------------------------------------|
|-4-4-4-4-4-4-4-4-7-7-7-7-7-7-7-7-9-9-9-9-9-9-9-9-9----|
|-4-4-4-4-4-4-4-4-7-7-7-7-7-7-7-7-9-9-9-9-9-9-9-9-9----|
|-2-2-2-2-2-2-2-2-5-5-5-5-5-5-5-5-7-7-7-7-7-7-7-7-7----|
muted............................................ >       


Outro:

  B5            F#5     E5
|----------------------------------||
|---------------------------------o||
|----------------------------------||
|-9-9-9-9-9-9-9-4-4-4-4-2-2-2-2-2--||
|-9-9-9-9-9-9-9-4-4-4-4-2-2-2-2-2-o||
|-7-7-7-7-7-7-7-2-2-2-2-0-0-0-0-0--||



|----------------------------------||
|---------------------------------o||
|----------------------------------||
|-9-9-9-9-9-9-9-4-4-4-4-2-2-2-2-2--||
|-9-9-9-9-9-9-9-4-4-4-4-2-2-2-2-2-o||
|-7-7-7-7-7-7-7-2-2-2-2-0-0-0-0-0--||
|
|-----------------------7----------||
|---------------4-5---7----7------o||
|----------------------------------||
|----------------------------------||
|---------------------------------o||
|----------------------------------||
 Guitar 2 plays this lead over the rhythm part


                                   4x
|----------------------------------||
|---------------------------------o||
|----------------------------------||
|-9-9-9-9-9-9-9-4-4-4-4-2-2-2-2-2--||
|-9-9-9-9-9-9-9-4-4-4-4-2-2-2-2-2-o||
|-7-7-7-7-7-7-7-2-2-2-2-0-0-0-0-0--||

"It's holy, everybody knows it..."

|----------------------------------||
|---------------------------------o||
|----------------------------------||
|-9-9-9-9-9-9-9-4-4-4-4-2-2-2-2-2--||
|-9-9-9-9-9-9-9-4-4-4-4-2-2-2-2-2-o||
|-7-7-7-7-7-7-7-2-2-2-2-0-0-0-0-0--||
|
|-----------7----------------------||
|-4-5---7-------7-----------------o||
|----------------------------------||
|----------------------------------||
|---------------------------------o||
|----------------------------------||
 Guitar 2 plays this lead over the rhythm part again

"Here comes your brand.............."

                                   3x
|----------------------------------||
|--------(feed--------------------o||
|---------back)--------------------||
|-9-9-9-9-------4-4-4-4-2-2-2-2-2--||
|-9-9-9-9-------4-4-4-4-2-2-2-2-2-o||
|-7-7-7-7-------2-2-2-2-0-0-0-0-0--||

|----------------------------------|
|----------------------------------|
|----------------------------------|
|-9-9-9-9-9-9-9-4-4-4-4-2-2-2-2-2--|
|-9-9-9-9-9-9-9-4-4-4-4-2-2-2-2-2--|
|-7-7-7-7-7-7-7-2-2-2-2-0-0-0-0-0--|


|-----------||
|-----------||
|-----------||
|-9---------||
|-9---------||
|-7---------||
 (hold chord)


That's it!





***************************************************************************************
* Generated using Power Tab Editor by Brad Larsen - http://powertab.guitarnetwork.org *
***************************************************************************************
Tap to rate this tab
 
# A B C D E F G H I J K L M N O P Q R S T U V W X Y Z