Song name
# A B C D E F G H I J K L M N O P Q R S T U V W X Y Z

Verve Pipe - Reverend Girl Acoustic tab

Fun Song.  a good solo song.

verse (repeat the pattern):
e--------------------------------------|
b--------------------------------------|
G-------0-------0--------0-------0-----|
D-----0-------0--------0-------0-------|
A---5-------8--------7-------3---------|
E-3-------6--------5-------1-----------|
                  "We are for today..."

bridge:
    C          Dadd4        Asus4      G7sus4
e------------------------------0-----------------------|
b-------1----------3---------3---0-----1-1p0-----------|
G-----0----0-----0-----0---2---------0-------0---------|
D---2----------------4---0---------3-------------------|
A-3----------3/5---------------------------------------|
E------------------------------------------------------|
One a.m. rummaging....


Chorus (repeat...):
   D/A   Gmaj7/B Cadd9
e--2------2------3--------------------|
b--3------3------3--------------------|
G--2------0------0--------------------|
D--0------0------2--------------------|
A--0------2------3--------------------|
E-------------------------------------|
                With a reverend girl...


that's it.  have fun.  remember to rate, etc.
-drew
Tap to rate this tab
# A B C D E F G H I J K L M N O P Q R S T U V W X Y Z