Song name
# A B C D E F G H I J K L M N O P Q R S T U V W X Y Z

Verve - Shes A Superstar tab

Intro:

E5:- x799xx
B5:- 799xxx
D5:- x577xx
A5:- 577xxx

then:
   *hold bend*                                   *hold bend*
E---------19------------------12s14---------------------19-------------------12s14-|
B--17b19------r17----12--10-----------12-14-----s17b19--------r17----12--10--------|
G----------------------------------------------------------------------------------|
D----------------------------------------------------------------------------------|
A----------------------------------------------------------------------------------|
E----------------------------------------------------------------------------------|

E----------------------|
B--12-14---15-------12-|
G---------------14-----|
D----------------------|
A----------------------|
E----------------------|


Pre Verse:

E-------------------------------------------------------------------------------|
B--------------12-12-------------12-12------------10-10-------------------------|
G----11s13-13----------11s13-13---------13s11-11---------11--9--11--9-----------|
D---------------------------------------------------------------------11--------|
A-------------------------------------------------------------------------------|
E-------------------------------------------------------------------------------|


E---------------------|
B---------------------|
G-----9------9------9-|
D-9h11---9h11---9h11--|
A---------------------|
E---------------------|

E-------------------------------------------------------------------------------|
B--------------12-12-------------12-12------------10-10-------------------------|
G----11s13-13----------11s13-13---------13s11-11---------11--9--11--9-----------|
D---------------------------------------------------------------------11--------|
A-------------------------------------------------------------------------------|
E-------------------------------------------------------------------------------|

E-------------------|
B--------9h10p9-----|
G--9h11----------11-|
D-------------------|
A-------------------|
E-------------------|

Verse:
Same Scale

"She climbed so high":

E------------12-12-----------14-14-------12-12-------------------------|
B--12s14--14--------14s12-12-------12s14------12--------------------12-|
G-------------------------------------------------9--11--9-----9s11----|
D----------------------------------------------------------11----------|
A----------------------------------------------------------------------|
E----------------------------------------------------------------------|

repeat after "high" then:

G---12b14

Chorus: same as intro

Chorus outro (when just bass and drums are playing) :

E-------------------------------
B--12^^^^^12^^^^^12^^^^^s10^^^^^
G-------------------------------|
D-------------------------------|
A-------------------------------|
E-------------------------------|

Verse is the same as previous verse, until:

"She climed so high"

E----------------------------|
B------------9h10p9----------|
G-------9h11--------11--9----|
D--9h11-------------------11-|
A----------------------------|
E----------------------------|

x7 then:

E-------------|
B--9-9h10--12-|
G-------------|
D-------------|
A-------------|
E-------------|

Chorus: Same as intro then:

B----20b20.5^^^^^^

Chorus again (same as intro)

Chorus outro (when just bass and drums are playing) :

E-------------------------------
B--12^^^^^12^^^^^12^^^^^s10^^^^^
G-------------------------------|
D-------------------------------|
A-------------------------------|
E-------------------------------|

Then the build up to the final chorus:

E---------10-10-|
B--s12-12-------|
G---------------|
D---------------|
A---------------|
E---------------|

repeated with variations.

Final Chorus (Same as intro)
Tap to rate this tab
 
# A B C D E F G H I J K L M N O P Q R S T U V W X Y Z