Guitaretab - guitar tabs
Song name
# A B C D E F G H I J K L M N O P Q R S T U V W X Y Z

Verve - This Could Be My Moment tab

First part
e|---------------------|
B|---------------------|
G|-----13h14-13--------| X3
D|--------------14-----|
A|---------------------|
E|---------------------|
[ Tab from: http://www.guitaretab.com/v/verve/79600.html ]
Then this part
e|---------------------------------|
B|---------------------------------|
G|---------------------------------|
D|--------2---2----2--444-4-2------|
A|---2h4---h4----4-----------------|
E|---------------------------------|


And it's as simple as that, you play the first part 3 times (listen to the CD for 
and then play the second part once. Repeat the whole thing twice. Easy tab for a cool and 
intro!
Related for This Could Be My Moment tab
Advertisement will be closed in 10 seconds