Song name
# A B C D E F G H I J K L M N O P Q R S T U V W X Y Z

Vestascension - Lifoliage tab

tabbed by: JDskate
http://youtu.be/QzR6eEm5oxU

http://vestascension.com/

Finally submitting this TAB to ultimate-guitar, had it on my dropbox for quite 
some time so the people of youtube could download it.

Enjoy!




Justin Gosnell

e|-10/18-16p15-----------------18-18b20-18p16-18~\--|
B|-------------16~\-------16------------------------|
G|--------------------15----15----------------------|
D|--------------------------------------------------|
A|--------------------------------------------------|
E|--------------------------------------------------|

e|-----------------------------------------------------|
B|-/16-15-16-13-16-11-16----16----16----16-11-16-------|
G|-----------------------13----12----13----------10-12-|
D|-----------------------------------------------------|
A|-----------------------------------------------------|
E|-----------------------------------------------------|

e|------------------------------------------------------------------|
B|----------------------------------------15-16b18rb16p15-16~-------|
G|-12b13rb12------12b13rb12-----12b13rb12---------------------------|
D|-----------13-------------13--------------------------------------|
A|------------------------------------------------------------------|
E|------------------------------------------------------------------|





Jake Bowen
                     PM                           |-PM|    PM   
e|------------------------------------------------------------|
B|------------------------------------------------------------|
G|------------------------------------------------------------|
D|-----------------8----8/12-8~-------------------------12----|
A|-10-8~--------10---10--------------8-8/10-8--------13----13-|
E|------------------------------------------------11----------|
                                    |-PM|        |PM|
e|--------------------------------------------------------|
B|--------------------------------------------------------|
G|------------------------------------------------------8-|
D|12h13p12---------------10h13-12~--------10-13-------8---|
A|---------13-------10h13-----------10-11--------8-11-----|
E|-------------10h11--------------------------------------|

e|-------------------11-15-18p15-----------------|
B|----------11-13-15-------------16p15-----------|
G|-12-10-12----------------------------17~~~\----|
D|-----------------------------------------------|
A|-----------------------------------------------|
E|-----------------------------------------------|





Mark Holcomb

e|--------10\6----8----------------4---------------------|
B|------------------6/8-6--------8---------------8-------|
G|-12\7-8-----------------------------7-7/10-8-----------|
D|--------------------------\5-6-------------------6p5---|
A|-------------------------------------------------------|
E|-------------------------------------------------------|

e|-10p6----13p10-----11p10---------------------------------|
B|-----8--------11--------11------------11-----------------|
G|------8---------12--------10\8h10p8\7---8p7--8p7--8------|
D|-------------------------------------------10---10-------|
A|---------------------------------------------------8/10-8|
E|---------------------------------------------------------|

          |----PM----------|
e|------------------------------------------------|
B|------------------------------------------11~---|
G|----------------------------------------12------|
D|-8/10-8-------------------13p12p10h12h13--------|
A|-----------------10-11-13-----------------------|
E|--------10-11-13--------------------------------|

Tap to rate this tab
 
# A B C D E F G H I J K L M N O P Q R S T U V W X Y Z