Song name
# A B C D E F G H I J K L M N O P Q R S T U V W X Y Z

Vete A La Versh - Chancro Voraz tab

this is a good song
the tabs are like this i dont have expiriense in this page but:
 intro:
e|----------------3-----------------------2h3p------------------|
b|------------3------3----------------3----------3--------------|
g|--------0-------------0----------2----------------2-----------|
D|--------------------------------------------------------------|
A|-----------------------------0--------------------------------|
E|--3-----------------------------------------------------------|


 e|-----------------0------------------2h3p-----------------------|
b|----------1---------------------3----------3--------------------|
g|-------0-----0------------2-------------------2-----------------|
D|----2------------------0----------------------------------------|
A|--3-------------------------------------------------------------|
E|----------------------------------------------------------------|
Tap to rate this tab
# A B C D E F G H I J K L M N O P Q R S T U V W X Y Z