Song name
# A B C D E F G H I J K L M N O P Q R S T U V W X Y Z

Vete A La Versh - Navidad 2009 tab

                                   Especial                                     

Vete A La Versh (VALV)

espero que puedan ayudarme con el bajeo del final


Tempo= 102

Duración=

---- Negra
--  Corchea
- Semicorchea
       
E||--7--7--7--7--7-9-7----------|-------------------------|
B||--------------------9-7---7--|--7-9-7------------------|
G||------------------------9----|--------9-6--------------|
D||-----------------------------|-------------9-----------|
A||-----------------------------|----------------------L--|
E||-----------------------------|-------------------------|


    
E|--------------7--7-9-7----------|--------------------------|
B|----------7-9----------9-7---7--|--7-9-7-----------7-------|
G|----6-8-9------------------9----|--------9-6--9---------9--|
D|--9-----------------------------|--------------------------|
A|--------------------------------|--------------------------|
E|--------------------------------|--------------------------|


    
E||--7--7--7--7--7-9-7----------|-------------------------|
B||--------------------9-7---7--|--7-9-7------------------|
G||------------------------9----|--------9-6--------------|
D||-----------------------------|-------------9-----------|
A||-----------------------------|----------------------L--|
E||-----------------------------|-------------------------|


    
E|--------------7--7-9-7----------|--------------------------|
B|----------7-9----------9-7---7--|--7-9-7-----------7-------|
G|----6-8-9------------------9----|--------9-6--9---------9--|
D|--9-----------------------------|--------------------------|
A|--------------------------------|--------------------------|
E|--------------------------------|--------------------------|
Tap to rate this tab
# A B C D E F G H I J K L M N O P Q R S T U V W X Y Z